ISO-10303-21;
HEADER;
FILE_DESCRIPTION (( 'STEP AP203' ),
    '1' );
FILE_NAME ('3_4in CORNER FILLER ,125 Alum.STEP',
    '2016-12-23T01:23:15',
    ( 'temp' ),
    ( '' ),
    'SwSTEP 2.0',
    'SolidWorks 2016',
    '' );
FILE_SCHEMA (( 'CONFIG_CONTROL_DESIGN' ));
ENDSEC;

DATA;
#1 = ORIENTED_EDGE ( 'NONE', *, *, #75, .F. ) ;
#2 = ORGANIZATION ( 'UNSPECIFIED', 'UNSPECIFIED', '' ) ;
#3 = CC_DESIGN_APPROVAL ( #45, ( #22 ) ) ;
#4 = CARTESIAN_POINT ( 'NONE',  ( 0.0000000000000000000, -0.8750000000000000000, 0.0000000000000000000 ) ) ;
#5 = APPLICATION_CONTEXT ( 'configuration controlled 3d designs of mechanical parts and assemblies' ) ;
#6 = ORIENTED_EDGE ( 'NONE', *, *, #108, .T. ) ;
#7 = LINE ( 'NONE', #114, #161 ) ;
#8 = DESIGN_CONTEXT ( 'detailed design', #103, 'design' ) ;
#9 = ORIENTED_EDGE ( 'NONE', *, *, #178, .T. ) ;
#10 = DIRECTION ( 'NONE',  ( -0.0000000000000000000, 1.000000000000000000, -0.0000000000000000000 ) ) ;
#11 = EDGE_CURVE ( 'NONE', #90, #48, #126, .T. ) ;
#12 = CLOSED_SHELL ( 'NONE', ( #195, #208, #142, #160, #34 ) ) ;
#13 = PLANE ( 'NONE',  #170 ) ;
#14 = LOCAL_TIME ( 17, 23, 15.00000000000000000, #124 ) ;
#15 = CC_DESIGN_PERSON_AND_ORGANIZATION_ASSIGNMENT ( #201, #213, ( #84 ) ) ;
#16 = DIRECTION ( 'NONE',  ( 1.000000000000000000, 0.0000000000000000000, 3.491481338843133400E-015 ) ) ;
#17 = DIRECTION ( 'NONE',  ( -3.491481338843133400E-015, 0.0000000000000000000, 1.000000000000000000 ) ) ;
#18 = AXIS2_PLACEMENT_3D ( 'NONE', #29, #43, #105 ) ;
#19 = EDGE_CURVE ( 'NONE', #72, #90, #157, .T. ) ;
#20 = VERTEX_POINT ( 'NONE', #211 ) ;
#21 = ORIENTED_EDGE ( 'NONE', *, *, #53, .F. ) ;
#22 = PRODUCT_DEFINITION_FORMATION_WITH_SPECIFIED_SOURCE ( 'ANY', '', #113, .NOT_KNOWN. ) ;
#23 = CARTESIAN_POINT ( 'NONE',  ( 2.340371408857793100E-031, -0.1250000000000000300, -6.703090126305103800E-017 ) ) ;
#24 = VECTOR ( 'NONE', #168, 39.37007874015748100 ) ;
#25 = SPHERICAL_SURFACE ( 'NONE', #88, 0.8750000000000001100 ) ;
#26 = DATE_AND_TIME ( #100, #14 ) ;
#27 = VECTOR ( 'NONE', #85, 39.37007874015748100 ) ;
#28 = LOCAL_TIME ( 17, 23, 15.00000000000000000, #37 ) ;
#29 = CARTESIAN_POINT ( 'NONE',  ( 5.357829746269670700E-017, -0.8750000000000001100, 0.0000000000000000000 ) ) ;
#30 = EDGE_LOOP ( 'NONE', ( #109, #1, #35 ) ) ;
#31 = APPROVAL ( #83, 'UNSPECIFIED' ) ;
#32 = AXIS2_PLACEMENT_3D ( 'NONE', #101, #143, #92 ) ;
#33 = APPROVAL ( #207, 'UNSPECIFIED' ) ;
#34 = ADVANCED_FACE ( 'NONE', ( #121 ), #13, .T. ) ;
#35 = ORIENTED_EDGE ( 'NONE', *, *, #178, .F. ) ;
#36 = PLANE ( 'NONE',  #205 ) ;
#37 = COORDINATED_UNIVERSAL_TIME_OFFSET ( 8, 0, .BEHIND. ) ;
#38 = AXIS2_PLACEMENT_3D ( 'NONE', #171, #71, #148 ) ;
#39 = APPROVAL_ROLE ( '' ) ;
#40 =( LENGTH_UNIT ( ) NAMED_UNIT ( * ) SI_UNIT ( $, .METRE. ) );
#41 = APPROVAL_PERSON_ORGANIZATION ( #140, #31, #150 ) ;
#42 = CC_DESIGN_SECURITY_CLASSIFICATION ( #84, ( #22 ) ) ;
#43 = DIRECTION ( 'NONE',  ( 0.0000000000000000000, 0.0000000000000000000, 1.000000000000000000 ) ) ;
#44 = CARTESIAN_POINT ( 'NONE',  ( 0.0000000000000000000, 0.0000000000000000000, 0.0000000000000000000 ) ) ;
#45 = APPROVAL ( #60, 'UNSPECIFIED' ) ;
#46 = AXIS2_PLACEMENT_3D ( 'NONE', #182, #106, #186 ) ;
#47 = CALENDAR_DATE ( 2016, 22, 12 ) ;
#48 = VERTEX_POINT ( 'NONE', #141 ) ;
#49 = VERTEX_POINT ( 'NONE', #52 ) ;
#50 = MECHANICAL_CONTEXT ( 'NONE', #5, 'mechanical' ) ;
#51 = DIRECTION ( 'NONE',  ( 0.0000000000000000000, 0.0000000000000000000, 1.000000000000000000 ) ) ;
#52 = CARTESIAN_POINT ( 'NONE',  ( 0.0000000000000000000, 0.0000000000000000000, 0.0000000000000000000 ) ) ;
#53 = EDGE_CURVE ( 'NONE', #48, #49, #133, .T. ) ;
#54 = AXIS2_PLACEMENT_3D ( 'NONE', #44, #55, #151 ) ;
#55 = DIRECTION ( 'NONE',  ( 0.0000000000000000000, 0.0000000000000000000, 1.000000000000000000 ) ) ;
#56 = PERSON_AND_ORGANIZATION ( #98, #2 ) ;
#57 = ORIENTED_EDGE ( 'NONE', *, *, #78, .F. ) ;
#58 = FACE_OUTER_BOUND ( 'NONE', #164, .T. ) ;
#59 = AXIS2_PLACEMENT_3D ( 'NONE', #191, #79, #95 ) ;
#60 = APPROVAL_STATUS ( 'not_yet_approved' ) ;
#61 = ORIENTED_EDGE ( 'NONE', *, *, #11, .F. ) ;
#62 = CALENDAR_DATE ( 2016, 22, 12 ) ;
#63 = EDGE_CURVE ( 'NONE', #123, #48, #112, .T. ) ;
#64 = DIRECTION ( 'NONE',  ( 3.491481338843133000E-015, 0.0000000000000000000, -1.000000000000000000 ) ) ;
#65 = CC_DESIGN_PERSON_AND_ORGANIZATION_ASSIGNMENT ( #153, #132, ( #113 ) ) ;
#66 = DATE_AND_TIME ( #47, #144 ) ;
#67 = CARTESIAN_POINT ( 'NONE',  ( -1.870676257579919700E-031, -0.8750000000000001100, 5.357829746269670700E-017 ) ) ;
#68 = PERSON_AND_ORGANIZATION_ROLE ( 'design_supplier' ) ;
#69 = CC_DESIGN_PERSON_AND_ORGANIZATION_ASSIGNMENT ( #116, #134, ( #96 ) ) ;
#70 = COORDINATED_UNIVERSAL_TIME_OFFSET ( 8, 0, .BEHIND. ) ;
#71 = DIRECTION ( 'NONE',  ( -0.0000000000000000000, 1.000000000000000000, -0.0000000000000000000 ) ) ;
#72 = VERTEX_POINT ( 'NONE', #23 ) ;
#73 = EDGE_LOOP ( 'NONE', ( #118, #176, #194, #99 ) ) ;
#74 = APPROVAL_PERSON_ORGANIZATION ( #56, #45, #199 ) ;
#75 = EDGE_CURVE ( 'NONE', #20, #90, #86, .T. ) ;
#76 = EDGE_LOOP ( 'NONE', ( #21, #61, #139, #57 ) ) ;
#77 = APPLICATION_PROTOCOL_DEFINITION ( 'international standard', 'config_control_design', 1994, #103 ) ;
#78 = EDGE_CURVE ( 'NONE', #49, #72, #185, .T. ) ;
#79 = DIRECTION ( 'NONE',  ( -0.0000000000000000000, -0.0000000000000000000, -1.000000000000000000 ) ) ;
#80 = CC_DESIGN_PERSON_AND_ORGANIZATION_ASSIGNMENT ( #158, #111, ( #22 ) ) ;
#81 = FACE_OUTER_BOUND ( 'NONE', #73, .T. ) ;
#82 = AXIS2_PLACEMENT_3D ( 'NONE', #169, #119, #190 ) ;
#83 = APPROVAL_STATUS ( 'not_yet_approved' ) ;
#84 = SECURITY_CLASSIFICATION ( '', '', #110 ) ;
#85 = DIRECTION ( 'NONE',  ( 1.000000000000000000, 0.0000000000000000000, 0.0000000000000000000 ) ) ;
#86 = CIRCLE ( 'NONE', #38, 0.7500000000000001100 ) ;
#87 = DIMENSIONAL_EXPONENTS ( 1.000000000000000000, 0.0000000000000000000, 0.0000000000000000000, 0.0000000000000000000, 0.0000000000000000000, 0.0000000000000000000, 0.0000000000000000000 ) ;
#88 = AXIS2_PLACEMENT_3D ( 'NONE', #67, #16, #17 ) ;
#89 = SHAPE_DEFINITION_REPRESENTATION ( #156, #193 ) ;
#90 = VERTEX_POINT ( 'NONE', #174 ) ;
#91 = FACE_OUTER_BOUND ( 'NONE', #210, .T. ) ;
#92 = DIRECTION ( 'NONE',  ( 3.491481338843133400E-015, 0.0000000000000000000, -1.000000000000000000 ) ) ;
#93 = EDGE_CURVE ( 'NONE', #20, #123, #7, .T. ) ;
#94 = MANIFOLD_SOLID_BREP ( 'Revolve1', #12 ) ;
#95 = DIRECTION ( 'NONE',  ( -1.000000000000000000, 0.0000000000000000000, 0.0000000000000000000 ) ) ;
#96 = PRODUCT_DEFINITION ( 'UNKNOWN', '', #22, #8 ) ;
#97 = DATE_TIME_ROLE ( 'creation_date' ) ;
#98 = PERSON ( 'UNSPECIFIED', 'UNSPECIFIED', 'UNSPECIFIED', ('UNSPECIFIED'), ('UNSPECIFIED'), ('UNSPECIFIED') ) ;
#99 = ORIENTED_EDGE ( 'NONE', *, *, #93, .F. ) ;
#100 = CALENDAR_DATE ( 2016, 22, 12 ) ;
#101 = CARTESIAN_POINT ( 'NONE',  ( -1.870676257579919700E-031, -0.8750000000000001100, 5.357829746269670700E-017 ) ) ;
#102 = LENGTH_MEASURE_WITH_UNIT ( LENGTH_MEASURE( 0.02539999999999999900 ), #40 );
#103 = APPLICATION_CONTEXT ( 'configuration controlled 3d designs of mechanical parts and assemblies' ) ;
#104 = CARTESIAN_POINT ( 'NONE',  ( 0.0000000000000000000, 0.0000000000000000000, 0.0000000000000000000 ) ) ;
#105 = DIRECTION ( 'NONE',  ( -1.000000000000000000, 0.0000000000000000000, 0.0000000000000000000 ) ) ;
#106 = DIRECTION ( 'NONE',  ( -1.000000000000000000, 0.0000000000000000000, -3.491481338843133000E-015 ) ) ;
#107 = APPLICATION_PROTOCOL_DEFINITION ( 'international standard', 'config_control_design', 1994, #5 ) ;
#108 = EDGE_CURVE ( 'NONE', #123, #49, #137, .T. ) ;
#109 = ORIENTED_EDGE ( 'NONE', *, *, #19, .T. ) ;
#110 = SECURITY_CLASSIFICATION_LEVEL ( 'unclassified' ) ;
#111 = PERSON_AND_ORGANIZATION_ROLE ( 'creator' ) ;
#112 = CIRCLE ( 'NONE', #138, 0.8750000000000001100 ) ;
#113 = PRODUCT ( '3_4in CORNER FILLER ,125 Alum', '3_4in CORNER FILLER ,125 Alum', '', ( #50 ) ) ;
#114 = CARTESIAN_POINT ( 'NONE',  ( -2.618611004132350000E-015, -0.8750000000000000000, 0.7500000000000001100 ) ) ;
#115 = ORIENTED_EDGE ( 'NONE', *, *, #63, .T. ) ;
#116 = PERSON_AND_ORGANIZATION ( #98, #2 ) ;
#117 = CARTESIAN_POINT ( 'NONE',  ( -2.618611004132350000E-015, -0.8750000000000000000, 0.7500000000000001100 ) ) ;
#118 = ORIENTED_EDGE ( 'NONE', *, *, #75, .T. ) ;
#119 = DIRECTION ( 'NONE',  ( 1.000000000000000000, 0.0000000000000000000, 3.491481338843133400E-015 ) ) ;
#120 =( GEOMETRIC_REPRESENTATION_CONTEXT ( 3 ) GLOBAL_UNCERTAINTY_ASSIGNED_CONTEXT ( ( #130 ) ) GLOBAL_UNIT_ASSIGNED_CONTEXT ( ( #146, #129, #175 ) ) REPRESENTATION_CONTEXT ( 'NONE', 'WORKASPACE' ) );
#121 = FACE_OUTER_BOUND ( 'NONE', #76, .T. ) ;
#122 = APPROVAL_DATE_TIME ( #165, #31 ) ;
#123 = VERTEX_POINT ( 'NONE', #196 ) ;
#124 = COORDINATED_UNIVERSAL_TIME_OFFSET ( 8, 0, .BEHIND. ) ;
#125 = CC_DESIGN_APPROVAL ( #31, ( #84 ) ) ;
#126 = LINE ( 'NONE', #179, #27 ) ;
#127 = DIRECTION ( 'NONE',  ( -3.491481338843133000E-015, 0.0000000000000000000, 1.000000000000000000 ) ) ;
#128 = PERSON_AND_ORGANIZATION ( #98, #2 ) ;
#129 =( NAMED_UNIT ( * ) PLANE_ANGLE_UNIT ( ) SI_UNIT ( $, .RADIAN. ) );
#130 = UNCERTAINTY_MEASURE_WITH_UNIT (LENGTH_MEASURE( 1.000000000000000100E-005 ), #146, 'distance_accuracy_value', 'NONE');
#131 = ORIENTED_EDGE ( 'NONE', *, *, #53, .T. ) ;
#132 = PERSON_AND_ORGANIZATION_ROLE ( 'design_owner' ) ;
#133 = CIRCLE ( 'NONE', #18, 0.8750000000000001100 ) ;
#134 = PERSON_AND_ORGANIZATION_ROLE ( 'creator' ) ;
#135 = COORDINATED_UNIVERSAL_TIME_OFFSET ( 8, 0, .BEHIND. ) ;
#136 = CC_DESIGN_PERSON_AND_ORGANIZATION_ASSIGNMENT ( #128, #68, ( #22 ) ) ;
#137 = CIRCLE ( 'NONE', #32, 0.8750000000000001100 ) ;
#138 = AXIS2_PLACEMENT_3D ( 'NONE', #4, #10, #51 ) ;
#139 = ORIENTED_EDGE ( 'NONE', *, *, #19, .F. ) ;
#140 = PERSON_AND_ORGANIZATION ( #98, #2 ) ;
#141 = CARTESIAN_POINT ( 'NONE',  ( 0.8750000000000001100, -0.8750000000000000000, 0.0000000000000000000 ) ) ;
#142 = ADVANCED_FACE ( 'NONE', ( #180 ), #189, .F. ) ;
#143 = DIRECTION ( 'NONE',  ( -1.000000000000000000, 0.0000000000000000000, -3.491481338843133400E-015 ) ) ;
#144 = LOCAL_TIME ( 17, 23, 15.00000000000000000, #135 ) ;
#145 = DATE_AND_TIME ( #204, #162 ) ;
#146 =( CONVERSION_BASED_UNIT ( 'INCH', #102 ) LENGTH_UNIT ( ) NAMED_UNIT ( #87 ) );
#147 = PERSON_AND_ORGANIZATION ( #98, #2 ) ;
#148 = DIRECTION ( 'NONE',  ( 0.0000000000000000000, 0.0000000000000000000, 1.000000000000000000 ) ) ;
#149 = CARTESIAN_POINT ( 'NONE',  ( -1.870676257579919700E-031, -0.8750000000000001100, 5.357829746269670700E-017 ) ) ;
#150 = APPROVAL_ROLE ( '' ) ;
#151 = DIRECTION ( 'NONE',  ( 1.000000000000000000, 0.0000000000000000000, 0.0000000000000000000 ) ) ;
#152 = CC_DESIGN_DATE_AND_TIME_ASSIGNMENT ( #26, #97, ( #96 ) ) ;
#153 = PERSON_AND_ORGANIZATION ( #98, #2 ) ;
#154 = APPROVAL_DATE_TIME ( #66, #33 ) ;
#155 = DIRECTION ( 'NONE',  ( -1.000000000000000000, 0.0000000000000000000, 0.0000000000000000000 ) ) ;
#156 = PRODUCT_DEFINITION_SHAPE ( 'NONE', 'NONE',  #96 ) ;
#157 = CIRCLE ( 'NONE', #59, 0.7500000000000001100 ) ;
#158 = PERSON_AND_ORGANIZATION ( #98, #2 ) ;
#159 = ORIENTED_EDGE ( 'NONE', *, *, #93, .T. ) ;
#160 = ADVANCED_FACE ( 'NONE', ( #91 ), #163, .F. ) ;
#161 = VECTOR ( 'NONE', #127, 39.37007874015748100 ) ;
#162 = LOCAL_TIME ( 17, 23, 15.00000000000000000, #183 ) ;
#163 = PLANE ( 'NONE',  #200 ) ;
#164 = EDGE_LOOP ( 'NONE', ( #115, #131, #167 ) ) ;
#165 = DATE_AND_TIME ( #62, #28 ) ;
#166 = CARTESIAN_POINT ( 'NONE',  ( 5.357829746269670700E-017, -0.8750000000000001100, 0.0000000000000000000 ) ) ;
#167 = ORIENTED_EDGE ( 'NONE', *, *, #108, .F. ) ;
#168 = DIRECTION ( 'NONE',  ( 1.872297127086234100E-030, -1.000000000000000000, -5.362472101044082000E-016 ) ) ;
#169 = CARTESIAN_POINT ( 'NONE',  ( -1.870676257579919700E-031, -0.8750000000000001100, 5.357829746269670700E-017 ) ) ;
#170 = AXIS2_PLACEMENT_3D ( 'NONE', #166, #192, #155 ) ;
#171 = CARTESIAN_POINT ( 'NONE',  ( 0.0000000000000000000, -0.8750000000000000000, 0.0000000000000000000 ) ) ;
#172 = APPROVAL_DATE_TIME ( #197, #45 ) ;
#173 = CALENDAR_DATE ( 2016, 22, 12 ) ;
#174 = CARTESIAN_POINT ( 'NONE',  ( 0.7500000000000001100, -0.8750000000000000000, 0.0000000000000000000 ) ) ;
#175 =( NAMED_UNIT ( * ) SI_UNIT ( $, .STERADIAN. ) SOLID_ANGLE_UNIT ( ) );
#176 = ORIENTED_EDGE ( 'NONE', *, *, #11, .T. ) ;
#177 = LOCAL_TIME ( 17, 23, 15.00000000000000000, #70 ) ;
#178 = EDGE_CURVE ( 'NONE', #72, #20, #203, .T. ) ;
#179 = CARTESIAN_POINT ( 'NONE',  ( 0.7500000000000001100, -0.8750000000000000000, 0.0000000000000000000 ) ) ;
#180 = FACE_OUTER_BOUND ( 'NONE', #30, .T. ) ;
#181 = DIRECTION ( 'NONE',  ( 1.000000000000000000, 0.0000000000000000000, 3.491481338843133000E-015 ) ) ;
#182 = CARTESIAN_POINT ( 'NONE',  ( -1.870676257579919700E-031, -0.8750000000000001100, 5.357829746269670700E-017 ) ) ;
#183 = COORDINATED_UNIVERSAL_TIME_OFFSET ( 8, 0, .BEHIND. ) ;
#184 = DIRECTION ( 'NONE',  ( -0.0000000000000000000, 1.000000000000000000, 0.0000000000000000000 ) ) ;
#185 = LINE ( 'NONE', #104, #24 ) ;
#186 = DIRECTION ( 'NONE',  ( 3.491481338843133000E-015, 0.0000000000000000000, -1.000000000000000000 ) ) ;
#187 = APPROVAL_PERSON_ORGANIZATION ( #147, #33, #39 ) ;
#188 = CC_DESIGN_APPROVAL ( #33, ( #96 ) ) ;
#189 = SPHERICAL_SURFACE ( 'NONE', #46, 0.7500000000000001100 ) ;
#190 = DIRECTION ( 'NONE',  ( 3.491481338843133000E-015, 0.0000000000000000000, -1.000000000000000000 ) ) ;
#191 = CARTESIAN_POINT ( 'NONE',  ( 5.357829746269670700E-017, -0.8750000000000001100, 0.0000000000000000000 ) ) ;
#192 = DIRECTION ( 'NONE',  ( -0.0000000000000000000, 0.0000000000000000000, -1.000000000000000000 ) ) ;
#193 = ADVANCED_BREP_SHAPE_REPRESENTATION ( '3_4in CORNER FILLER ,125 Alum', ( #94, #54 ), #120 ) ;
#194 = ORIENTED_EDGE ( 'NONE', *, *, #63, .F. ) ;
#195 = ADVANCED_FACE ( 'NONE', ( #58 ), #25, .T. ) ;
#196 = CARTESIAN_POINT ( 'NONE',  ( -3.055046171487742100E-015, -0.8750000000000000000, 0.8750000000000001100 ) ) ;
#197 = DATE_AND_TIME ( #173, #177 ) ;
#198 = DIRECTION ( 'NONE',  ( 0.0000000000000000000, 0.0000000000000000000, 1.000000000000000000 ) ) ;
#199 = APPROVAL_ROLE ( '' ) ;
#200 = AXIS2_PLACEMENT_3D ( 'NONE', #149, #181, #64 ) ;
#201 = PERSON_AND_ORGANIZATION ( #98, #2 ) ;
#202 = PRODUCT_RELATED_PRODUCT_CATEGORY ( 'detail', '', ( #113 ) ) ;
#203 = CIRCLE ( 'NONE', #82, 0.7500000000000001100 ) ;
#204 = CALENDAR_DATE ( 2016, 22, 12 ) ;
#205 = AXIS2_PLACEMENT_3D ( 'NONE', #117, #184, #198 ) ;
#206 = DATE_TIME_ROLE ( 'classification_date' ) ;
#207 = APPROVAL_STATUS ( 'not_yet_approved' ) ;
#208 = ADVANCED_FACE ( 'NONE', ( #81 ), #36, .F. ) ;
#209 = CC_DESIGN_DATE_AND_TIME_ASSIGNMENT ( #145, #206, ( #84 ) ) ;
#210 = EDGE_LOOP ( 'NONE', ( #6, #212, #9, #159 ) ) ;
#211 = CARTESIAN_POINT ( 'NONE',  ( -2.618611004132350000E-015, -0.8750000000000000000, 0.7500000000000001100 ) ) ;
#212 = ORIENTED_EDGE ( 'NONE', *, *, #78, .T. ) ;
#213 = PERSON_AND_ORGANIZATION_ROLE ( 'classification_officer' ) ;
ENDSEC;
END-ISO-10303-21;
