ISO-10303-21;
HEADER;
FILE_DESCRIPTION (( 'STEP AP203' ),
    '1' );
FILE_NAME ('300306.STEP',
    '2017-01-13T00:53:42',
    ( 'temp' ),
    ( '' ),
    'SwSTEP 2.0',
    'SolidWorks 2016',
    '' );
FILE_SCHEMA (( 'CONFIG_CONTROL_DESIGN' ));
ENDSEC;

DATA;
#1 = LINE ( 'NONE', #205, #211 ) ;
#2 = AXIS2_PLACEMENT_3D ( 'NONE', #171, #172, #78 ) ;
#3 = PERSON_AND_ORGANIZATION ( #184, #191 ) ;
#4 = PRODUCT ( '300306', '300306', '', ( #94 ) ) ;
#5 = CC_DESIGN_APPROVAL ( #20, ( #34 ) ) ;
#6 = CALENDAR_DATE ( 2017, 12, 1 ) ;
#7 = VECTOR ( 'NONE', #203, 39.37007874015748100 ) ;
#8 = VERTEX_POINT ( 'NONE', #139 ) ;
#9 = DIRECTION ( 'NONE',  ( -0.0000000000000000000, 0.0000000000000000000, -1.000000000000000000 ) ) ;
#10 = PERSON_AND_ORGANIZATION ( #184, #191 ) ;
#11 = DIRECTION ( 'NONE',  ( -1.000000000000000000, 0.0000000000000000000, -3.491481338843133400E-015 ) ) ;
#12 = ADVANCED_BREP_SHAPE_REPRESENTATION ( '300306', ( #39, #2 ), #123 ) ;
#13 = DIRECTION ( 'NONE',  ( -0.0000000000000000000, 1.000000000000000000, -0.0000000000000000000 ) ) ;
#14 = LOCAL_TIME ( 16, 53, 42.00000000000000000, #132 ) ;
#15 = CALENDAR_DATE ( 2017, 12, 1 ) ;
#16 = APPROVAL_STATUS ( 'not_yet_approved' ) ;
#17 = DIRECTION ( 'NONE',  ( 1.000000000000000000, 0.0000000000000000000, 3.491481338843133000E-015 ) ) ;
#18 = COORDINATED_UNIVERSAL_TIME_OFFSET ( 8, 0, .BEHIND. ) ;
#19 = CC_DESIGN_DATE_AND_TIME_ASSIGNMENT ( #91, #111, ( #100 ) ) ;
#20 = APPROVAL ( #16, 'UNSPECIFIED' ) ;
#21 = CC_DESIGN_APPROVAL ( #188, ( #186 ) ) ;
#22 = AXIS2_PLACEMENT_3D ( 'NONE', #23, #152, #134 ) ;
#23 = CARTESIAN_POINT ( 'NONE',  ( -3.399285999488083100E-031, -1.590000000000000300, 9.735942053221459900E-017 ) ) ;
#24 = CARTESIAN_POINT ( 'NONE',  ( 9.735942053221459900E-017, -1.590000000000000300, 0.0000000000000000000 ) ) ;
#25 = ADVANCED_FACE ( 'NONE', ( #196 ), #81, .F. ) ;
#26 = ORIENTED_EDGE ( 'NONE', *, *, #157, .T. ) ;
#27 = CARTESIAN_POINT ( 'NONE',  ( -5.551455328760582500E-015, -1.590000000000000100, 1.590000000000000100 ) ) ;
#28 =( NAMED_UNIT ( * ) SI_UNIT ( $, .STERADIAN. ) SOLID_ANGLE_UNIT ( ) );
#29 = PERSON_AND_ORGANIZATION_ROLE ( 'creator' ) ;
#30 = COORDINATED_UNIVERSAL_TIME_OFFSET ( 8, 0, .BEHIND. ) ;
#31 = ORIENTED_EDGE ( 'NONE', *, *, #157, .F. ) ;
#32 = DATE_AND_TIME ( #6, #33 ) ;
#33 = LOCAL_TIME ( 16, 53, 42.00000000000000000, #30 ) ;
#34 = PRODUCT_DEFINITION_FORMATION_WITH_SPECIFIED_SOURCE ( 'ANY', '', #4, .NOT_KNOWN. ) ;
#35 = DIRECTION ( 'NONE',  ( 3.491481338843133000E-015, 0.0000000000000000000, -1.000000000000000000 ) ) ;
#36 = LOCAL_TIME ( 16, 53, 42.00000000000000000, #86 ) ;
#37 = CIRCLE ( 'NONE', #113, 1.500000000000000400 ) ;
#38 = ADVANCED_FACE ( 'NONE', ( #162 ), #201, .T. ) ;
#39 = MANIFOLD_SOLID_BREP ( 'Revolve1', #182 ) ;
#40 = AXIS2_PLACEMENT_3D ( 'NONE', #109, #13, #121 ) ;
#41 = LOCAL_TIME ( 16, 53, 42.00000000000000000, #18 ) ;
#42 = ORIENTED_EDGE ( 'NONE', *, *, #71, .T. ) ;
#43 = APPLICATION_PROTOCOL_DEFINITION ( 'international standard', 'config_control_design', 1994, #60 ) ;
#44 = FACE_OUTER_BOUND ( 'NONE', #212, .T. ) ;
#45 = SECURITY_CLASSIFICATION_LEVEL ( 'unclassified' ) ;
#46 = DIRECTION ( 'NONE',  ( 0.0000000000000000000, 0.0000000000000000000, 1.000000000000000000 ) ) ;
#47 = EDGE_LOOP ( 'NONE', ( #187, #56, #190 ) ) ;
#48 = PERSON_AND_ORGANIZATION ( #184, #191 ) ;
#49 = CIRCLE ( 'NONE', #70, 1.590000000000000300 ) ;
#50 = PERSON_AND_ORGANIZATION ( #184, #191 ) ;
#51 = CARTESIAN_POINT ( 'NONE',  ( -3.399285999488083100E-031, -1.590000000000000300, 9.735942053221459900E-017 ) ) ;
#52 = CALENDAR_DATE ( 2017, 12, 1 ) ;
#53 = CIRCLE ( 'NONE', #133, 1.500000000000000400 ) ;
#54 = ORIENTED_EDGE ( 'NONE', *, *, #183, .F. ) ;
#55 = CC_DESIGN_DATE_AND_TIME_ASSIGNMENT ( #32, #155, ( #186 ) ) ;
#56 = ORIENTED_EDGE ( 'NONE', *, *, #93, .F. ) ;
#57 = PLANE ( 'NONE',  #115 ) ;
#58 = DIRECTION ( 'NONE',  ( -0.0000000000000000000, 1.000000000000000000, 0.0000000000000000000 ) ) ;
#59 = CARTESIAN_POINT ( 'NONE',  ( 0.0000000000000000000, -1.590000000000000100, 0.0000000000000000000 ) ) ;
#60 = APPLICATION_CONTEXT ( 'configuration controlled 3d designs of mechanical parts and assemblies' ) ;
#61 =( LENGTH_UNIT ( ) NAMED_UNIT ( * ) SI_UNIT ( $, .METRE. ) );
#62 = APPROVAL_STATUS ( 'not_yet_approved' ) ;
#63 = APPROVAL ( #194, 'UNSPECIFIED' ) ;
#64 = APPROVAL_PERSON_ORGANIZATION ( #10, #20, #125 ) ;
#65 = CC_DESIGN_PERSON_AND_ORGANIZATION_ASSIGNMENT ( #3, #209, ( #4 ) ) ;
#66 = APPROVAL_DATE_TIME ( #149, #63 ) ;
#67 = CC_DESIGN_PERSON_AND_ORGANIZATION_ASSIGNMENT ( #50, #210, ( #100 ) ) ;
#68 = ORIENTED_EDGE ( 'NONE', *, *, #163, .T. ) ;
#69 = CARTESIAN_POINT ( 'NONE',  ( 5.022809333387344200E-031, -0.08999999999999985800, -1.438589769192809500E-016 ) ) ;
#70 = AXIS2_PLACEMENT_3D ( 'NONE', #107, #11, #119 ) ;
#71 = EDGE_CURVE ( 'NONE', #147, #206, #114, .T. ) ;
#72 = ORIENTED_EDGE ( 'NONE', *, *, #198, .T. ) ;
#73 = DIRECTION ( 'NONE',  ( -0.0000000000000000000, -0.0000000000000000000, -1.000000000000000000 ) ) ;
#74 = CARTESIAN_POINT ( 'NONE',  ( -5.237222008264700800E-015, -1.590000000000000100, 1.500000000000000400 ) ) ;
#75 = CALENDAR_DATE ( 2017, 12, 1 ) ;
#76 = CARTESIAN_POINT ( 'NONE',  ( 0.0000000000000000000, 0.0000000000000000000, 0.0000000000000000000 ) ) ;
#77 = VERTEX_POINT ( 'NONE', #69 ) ;
#78 = DIRECTION ( 'NONE',  ( 1.000000000000000000, 0.0000000000000000000, 0.0000000000000000000 ) ) ;
#79 = APPLICATION_PROTOCOL_DEFINITION ( 'international standard', 'config_control_design', 1994, #85 ) ;
#80 = DATE_AND_TIME ( #52, #14 ) ;
#81 = SPHERICAL_SURFACE ( 'NONE', #98, 1.500000000000000400 ) ;
#82 = CARTESIAN_POINT ( 'NONE',  ( -3.399285999488083100E-031, -1.590000000000000300, 9.735942053221459900E-017 ) ) ;
#83 = ORIENTED_EDGE ( 'NONE', *, *, #93, .T. ) ;
#84 = LINE ( 'NONE', #150, #7 ) ;
#85 = APPLICATION_CONTEXT ( 'configuration controlled 3d designs of mechanical parts and assemblies' ) ;
#86 = COORDINATED_UNIVERSAL_TIME_OFFSET ( 8, 0, .BEHIND. ) ;
#87 = VERTEX_POINT ( 'NONE', #118 ) ;
#88 = DIRECTION ( 'NONE',  ( -1.000000000000000000, 0.0000000000000000000, 0.0000000000000000000 ) ) ;
#89 = FACE_OUTER_BOUND ( 'NONE', #213, .T. ) ;
#90 = ADVANCED_FACE ( 'NONE', ( #89 ), #173, .T. ) ;
#91 = DATE_AND_TIME ( #99, #178 ) ;
#92 = CARTESIAN_POINT ( 'NONE',  ( -3.399285999488083100E-031, -1.590000000000000300, 9.735942053221459900E-017 ) ) ;
#93 = EDGE_CURVE ( 'NONE', #87, #8, #124, .T. ) ;
#94 = MECHANICAL_CONTEXT ( 'NONE', #60, 'mechanical' ) ;
#95 = CIRCLE ( 'NONE', #40, 1.590000000000000100 ) ;
#96 = LENGTH_MEASURE_WITH_UNIT ( LENGTH_MEASURE( 0.02539999999999999900 ), #61 );
#97 = APPROVAL_ROLE ( '' ) ;
#98 = AXIS2_PLACEMENT_3D ( 'NONE', #51, #202, #106 ) ;
#99 = CALENDAR_DATE ( 2017, 12, 1 ) ;
#100 = PRODUCT_DEFINITION ( 'UNKNOWN', '', #34, #146 ) ;
#101 = ORIENTED_EDGE ( 'NONE', *, *, #175, .F. ) ;
#102 = PLANE ( 'NONE',  #207 ) ;
#103 = ORIENTED_EDGE ( 'NONE', *, *, #167, .T. ) ;
#104 = ADVANCED_FACE ( 'NONE', ( #135 ), #102, .F. ) ;
#105 = EDGE_CURVE ( 'NONE', #77, #8, #53, .T. ) ;
#106 = DIRECTION ( 'NONE',  ( 3.491481338843133000E-015, 0.0000000000000000000, -1.000000000000000000 ) ) ;
#107 = CARTESIAN_POINT ( 'NONE',  ( -3.399285999488083100E-031, -1.590000000000000300, 9.735942053221459900E-017 ) ) ;
#108 = CC_DESIGN_SECURITY_CLASSIFICATION ( #186, ( #34 ) ) ;
#109 = CARTESIAN_POINT ( 'NONE',  ( 0.0000000000000000000, -1.590000000000000100, 0.0000000000000000000 ) ) ;
#110 = DIRECTION ( 'NONE',  ( 3.491481338843133000E-015, 0.0000000000000000000, -1.000000000000000000 ) ) ;
#111 = DATE_TIME_ROLE ( 'creation_date' ) ;
#112 = PRODUCT_RELATED_PRODUCT_CATEGORY ( 'detail', '', ( #4 ) ) ;
#113 = AXIS2_PLACEMENT_3D ( 'NONE', #92, #208, #110 ) ;
#114 = CIRCLE ( 'NONE', #126, 1.590000000000000300 ) ;
#115 = AXIS2_PLACEMENT_3D ( 'NONE', #151, #58, #169 ) ;
#116 = APPROVAL_PERSON_ORGANIZATION ( #204, #188, #176 ) ;
#117 = EDGE_LOOP ( 'NONE', ( #26, #153, #72, #145 ) ) ;
#118 = CARTESIAN_POINT ( 'NONE',  ( -5.237222008264700800E-015, -1.590000000000000100, 1.500000000000000400 ) ) ;
#119 = DIRECTION ( 'NONE',  ( 3.491481338843133400E-015, 0.0000000000000000000, -1.000000000000000000 ) ) ;
#120 = VECTOR ( 'NONE', #154, 39.37007874015748100 ) ;
#121 = DIRECTION ( 'NONE',  ( 0.0000000000000000000, 0.0000000000000000000, 1.000000000000000000 ) ) ;
#122 =( CONVERSION_BASED_UNIT ( 'INCH', #96 ) LENGTH_UNIT ( ) NAMED_UNIT ( #136 ) );
#123 =( GEOMETRIC_REPRESENTATION_CONTEXT ( 3 ) GLOBAL_UNCERTAINTY_ASSIGNED_CONTEXT ( ( #158 ) ) GLOBAL_UNIT_ASSIGNED_CONTEXT ( ( #122, #174, #28 ) ) REPRESENTATION_CONTEXT ( 'NONE', 'WORKASPACE' ) );
#124 = CIRCLE ( 'NONE', #199, 1.500000000000000400 ) ;
#125 = APPROVAL_ROLE ( '' ) ;
#126 = AXIS2_PLACEMENT_3D ( 'NONE', #161, #46, #160 ) ;
#127 = PERSON_AND_ORGANIZATION ( #184, #191 ) ;
#128 = DATE_AND_TIME ( #75, #36 ) ;
#129 = SHAPE_DEFINITION_REPRESENTATION ( #179, #12 ) ;
#130 = CC_DESIGN_PERSON_AND_ORGANIZATION_ASSIGNMENT ( #180, #142, ( #34 ) ) ;
#131 = ORIENTED_EDGE ( 'NONE', *, *, #167, .F. ) ;
#132 = COORDINATED_UNIVERSAL_TIME_OFFSET ( 8, 0, .BEHIND. ) ;
#133 = AXIS2_PLACEMENT_3D ( 'NONE', #168, #73, #189 ) ;
#134 = DIRECTION ( 'NONE',  ( -3.491481338843133400E-015, 0.0000000000000000000, 1.000000000000000000 ) ) ;
#135 = FACE_OUTER_BOUND ( 'NONE', #117, .T. ) ;
#136 = DIMENSIONAL_EXPONENTS ( 1.000000000000000000, 0.0000000000000000000, 0.0000000000000000000, 0.0000000000000000000, 0.0000000000000000000, 0.0000000000000000000, 0.0000000000000000000 ) ;
#137 = AXIS2_PLACEMENT_3D ( 'NONE', #24, #9, #88 ) ;
#138 = CARTESIAN_POINT ( 'NONE',  ( 1.590000000000000100, -1.590000000000000100, 0.0000000000000000000 ) ) ;
#139 = CARTESIAN_POINT ( 'NONE',  ( 1.500000000000000400, -1.590000000000000100, 0.0000000000000000000 ) ) ;
#140 = DIRECTION ( 'NONE',  ( -0.0000000000000000000, 1.000000000000000000, -0.0000000000000000000 ) ) ;
#141 = DIRECTION ( 'NONE',  ( 5.580899259319280100E-030, -1.000000000000000000, -1.598433076880901800E-015 ) ) ;
#142 = PERSON_AND_ORGANIZATION_ROLE ( 'design_supplier' ) ;
#143 = APPROVAL_DATE_TIME ( #80, #20 ) ;
#144 = APPROVAL_DATE_TIME ( #128, #188 ) ;
#145 = ORIENTED_EDGE ( 'NONE', *, *, #175, .T. ) ;
#146 = DESIGN_CONTEXT ( 'detailed design', #85, 'design' ) ;
#147 = VERTEX_POINT ( 'NONE', #138 ) ;
#148 = CC_DESIGN_PERSON_AND_ORGANIZATION_ASSIGNMENT ( #48, #200, ( #186 ) ) ;
#149 = DATE_AND_TIME ( #15, #41 ) ;
#150 = CARTESIAN_POINT ( 'NONE',  ( 1.500000000000000400, -1.590000000000000100, 0.0000000000000000000 ) ) ;
#151 = CARTESIAN_POINT ( 'NONE',  ( -5.237222008264700800E-015, -1.590000000000000100, 1.500000000000000400 ) ) ;
#152 = DIRECTION ( 'NONE',  ( 1.000000000000000000, 0.0000000000000000000, 3.491481338843133400E-015 ) ) ;
#153 = ORIENTED_EDGE ( 'NONE', *, *, #183, .T. ) ;
#154 = DIRECTION ( 'NONE',  ( -3.491481338843133000E-015, 0.0000000000000000000, 1.000000000000000000 ) ) ;
#155 = DATE_TIME_ROLE ( 'classification_date' ) ;
#156 = ORIENTED_EDGE ( 'NONE', *, *, #163, .F. ) ;
#157 = EDGE_CURVE ( 'NONE', #185, #206, #49, .T. ) ;
#158 = UNCERTAINTY_MEASURE_WITH_UNIT (LENGTH_MEASURE( 1.000000000000000100E-005 ), #122, 'distance_accuracy_value', 'NONE');
#159 = ORIENTED_EDGE ( 'NONE', *, *, #105, .F. ) ;
#160 = DIRECTION ( 'NONE',  ( -1.000000000000000000, 0.0000000000000000000, 0.0000000000000000000 ) ) ;
#161 = CARTESIAN_POINT ( 'NONE',  ( 9.735942053221459900E-017, -1.590000000000000300, 0.0000000000000000000 ) ) ;
#162 = FACE_OUTER_BOUND ( 'NONE', #197, .T. ) ;
#163 = EDGE_CURVE ( 'NONE', #8, #147, #84, .T. ) ;
#164 = APPROVAL_PERSON_ORGANIZATION ( #177, #63, #97 ) ;
#165 = LINE ( 'NONE', #74, #120 ) ;
#166 = ADVANCED_FACE ( 'NONE', ( #44 ), #57, .F. ) ;
#167 = EDGE_CURVE ( 'NONE', #185, #147, #95, .T. ) ;
#168 = CARTESIAN_POINT ( 'NONE',  ( 9.735942053221459900E-017, -1.590000000000000300, 0.0000000000000000000 ) ) ;
#169 = DIRECTION ( 'NONE',  ( 0.0000000000000000000, 0.0000000000000000000, 1.000000000000000000 ) ) ;
#170 = CC_DESIGN_PERSON_AND_ORGANIZATION_ASSIGNMENT ( #127, #29, ( #34 ) ) ;
#171 = CARTESIAN_POINT ( 'NONE',  ( 0.0000000000000000000, 0.0000000000000000000, 0.0000000000000000000 ) ) ;
#172 = DIRECTION ( 'NONE',  ( 0.0000000000000000000, 0.0000000000000000000, 1.000000000000000000 ) ) ;
#173 = SPHERICAL_SURFACE ( 'NONE', #22, 1.590000000000000300 ) ;
#174 =( NAMED_UNIT ( * ) PLANE_ANGLE_UNIT ( ) SI_UNIT ( $, .RADIAN. ) );
#175 = EDGE_CURVE ( 'NONE', #87, #185, #165, .T. ) ;
#176 = APPROVAL_ROLE ( '' ) ;
#177 = PERSON_AND_ORGANIZATION ( #184, #191 ) ;
#178 = LOCAL_TIME ( 16, 53, 42.00000000000000000, #195 ) ;
#179 = PRODUCT_DEFINITION_SHAPE ( 'NONE', 'NONE',  #100 ) ;
#180 = PERSON_AND_ORGANIZATION ( #184, #191 ) ;
#181 = ORIENTED_EDGE ( 'NONE', *, *, #71, .F. ) ;
#182 = CLOSED_SHELL ( 'NONE', ( #90, #166, #25, #104, #38 ) ) ;
#183 = EDGE_CURVE ( 'NONE', #206, #77, #1, .T. ) ;
#184 = PERSON ( 'UNSPECIFIED', 'UNSPECIFIED', 'UNSPECIFIED', ('UNSPECIFIED'), ('UNSPECIFIED'), ('UNSPECIFIED') ) ;
#185 = VERTEX_POINT ( 'NONE', #27 ) ;
#186 = SECURITY_CLASSIFICATION ( '', '', #45 ) ;
#187 = ORIENTED_EDGE ( 'NONE', *, *, #105, .T. ) ;
#188 = APPROVAL ( #62, 'UNSPECIFIED' ) ;
#189 = DIRECTION ( 'NONE',  ( -1.000000000000000000, 0.0000000000000000000, 0.0000000000000000000 ) ) ;
#190 = ORIENTED_EDGE ( 'NONE', *, *, #198, .F. ) ;
#191 = ORGANIZATION ( 'UNSPECIFIED', 'UNSPECIFIED', '' ) ;
#192 = DIRECTION ( 'NONE',  ( 0.0000000000000000000, 0.0000000000000000000, 1.000000000000000000 ) ) ;
#193 = CC_DESIGN_APPROVAL ( #63, ( #100 ) ) ;
#194 = APPROVAL_STATUS ( 'not_yet_approved' ) ;
#195 = COORDINATED_UNIVERSAL_TIME_OFFSET ( 8, 0, .BEHIND. ) ;
#196 = FACE_OUTER_BOUND ( 'NONE', #47, .T. ) ;
#197 = EDGE_LOOP ( 'NONE', ( #181, #156, #159, #54 ) ) ;
#198 = EDGE_CURVE ( 'NONE', #77, #87, #37, .T. ) ;
#199 = AXIS2_PLACEMENT_3D ( 'NONE', #59, #140, #192 ) ;
#200 = PERSON_AND_ORGANIZATION_ROLE ( 'classification_officer' ) ;
#201 = PLANE ( 'NONE',  #137 ) ;
#202 = DIRECTION ( 'NONE',  ( -1.000000000000000000, 0.0000000000000000000, -3.491481338843133000E-015 ) ) ;
#203 = DIRECTION ( 'NONE',  ( 1.000000000000000000, 0.0000000000000000000, 0.0000000000000000000 ) ) ;
#204 = PERSON_AND_ORGANIZATION ( #184, #191 ) ;
#205 = CARTESIAN_POINT ( 'NONE',  ( 0.0000000000000000000, 0.0000000000000000000, 0.0000000000000000000 ) ) ;
#206 = VERTEX_POINT ( 'NONE', #76 ) ;
#207 = AXIS2_PLACEMENT_3D ( 'NONE', #82, #17, #35 ) ;
#208 = DIRECTION ( 'NONE',  ( 1.000000000000000000, 0.0000000000000000000, 3.491481338843133400E-015 ) ) ;
#209 = PERSON_AND_ORGANIZATION_ROLE ( 'design_owner' ) ;
#210 = PERSON_AND_ORGANIZATION_ROLE ( 'creator' ) ;
#211 = VECTOR ( 'NONE', #141, 39.37007874015748100 ) ;
#212 = EDGE_LOOP ( 'NONE', ( #83, #68, #131, #101 ) ) ;
#213 = EDGE_LOOP ( 'NONE', ( #103, #42, #31 ) ) ;
ENDSEC;
END-ISO-10303-21;
