ISO-10303-21;
HEADER;
FILE_DESCRIPTION (( 'STEP AP203' ),
    '1' );
FILE_NAME ('400403.STEP',
    '2024-01-21T18:19:49',
    ( '' ),
    ( '' ),
    'SwSTEP 2.0',
    'SolidWorks 2021',
    '' );
FILE_SCHEMA (( 'CONFIG_CONTROL_DESIGN' ));
ENDSEC;

DATA;
#1 = APPROVAL_PERSON_ORGANIZATION ( #31, #194, #164 ) ;
#2 = CALENDAR_DATE ( 2024, 21, 1 ) ;
#3 = ORIENTED_EDGE ( 'NONE', *, *, #142, .F. ) ;
#4 = PERSON_AND_ORGANIZATION ( #54, #83 ) ;
#5 = AXIS2_PLACEMENT_3D ( 'NONE', #74, #206, #109 ) ;
#7 = DIRECTION ( 'NONE',  ( -3.820261298863317739E-15, 1.000000000000000000, 4.230038497912942924E-15 ) ) ;
#6 = CC_DESIGN_PERSON_AND_ORGANIZATION_ASSIGNMENT ( #100, #166, ( #132 ) ) ;
#8 = CARTESIAN_POINT ( 'NONE',  ( -1.414213562373097810, -1.414213562373091815, -5.463695987328526437E-16 ) ) ;
#9 = DIMENSIONAL_EXPONENTS ( 1.000000000000000000, 0.000000000000000000, 0.000000000000000000, 0.000000000000000000, 0.000000000000000000, 0.000000000000000000, 0.000000000000000000 ) ;
#10 = EDGE_LOOP ( 'NONE', ( #71, #3, #153, #168 ) ) ;
#11 = DIRECTION ( 'NONE',  ( -0.7071067811865487940, 1.365923996832131609E-16, 0.7071067811865463515 ) ) ;
#12 = CIRCLE ( 'NONE', #38, 2.000000000000000444 ) ;
#13 = PERSON_AND_ORGANIZATION ( #54, #83 ) ;
#14 = CARTESIAN_POINT ( 'NONE',  ( 1.414213562373097810, -1.414213562373091815, -5.463695987328526437E-16 ) ) ;
#15 = DIRECTION ( 'NONE',  ( 1.000000000000000000, 0.000000000000000000, 0.000000000000000000 ) ) ;
#16 = COORDINATED_UNIVERSAL_TIME_OFFSET ( 8, 0, .BEHIND. ) ;
#17 = APPROVAL_PERSON_ORGANIZATION ( #78, #61, #143 ) ;
#18 = MANIFOLD_SOLID_BREP ( 'Revolve1', #195 ) ;
#19 = EDGE_CURVE ( 'NONE', #183, #152, #102, .T. ) ;
#20 = COORDINATED_UNIVERSAL_TIME_OFFSET ( 8, 0, .BEHIND. ) ;
#21 =( GEOMETRIC_REPRESENTATION_CONTEXT ( 3 ) GLOBAL_UNCERTAINTY_ASSIGNED_CONTEXT ( ( #34 ) ) GLOBAL_UNIT_ASSIGNED_CONTEXT ( ( #165, #92, #50 ) ) REPRESENTATION_CONTEXT ( 'NONE', 'WORKASPACE' ) );
#22 = EDGE_LOOP ( 'NONE', ( #201, #138, #25, #171 ) ) ;
#23 = AXIS2_PLACEMENT_3D ( 'NONE', #91, #112, #15 ) ;
#24 = CC_DESIGN_DATE_AND_TIME_ASSIGNMENT ( #192, #178, ( #97 ) ) ;
#25 = ORIENTED_EDGE ( 'NONE', *, *, #177, .T. ) ;
#26 = DIRECTION ( 'NONE',  ( -0.7071067811865487940, 1.334561794657676185E-16, 0.7071067811865462405 ) ) ;
#27 = DIRECTION ( 'NONE',  ( -0.000000000000000000, 1.000000000000000000, 4.097771990496395814E-16 ) ) ;
#28 = DIRECTION ( 'NONE',  ( -0.7071067811865463515, -2.897562362236303384E-16, 0.7071067811865487940 ) ) ;
#29 = DIRECTION ( 'NONE',  ( -0.000000000000000000, 1.000000000000000000, 4.097771990496395814E-16 ) ) ;
#30 = DIRECTION ( 'NONE',  ( 0.7071067811865486830, 1.200209628260102044E-16, 0.7071067811865462405 ) ) ;
#31 = PERSON_AND_ORGANIZATION ( #54, #83 ) ;
#32 = EDGE_CURVE ( 'NONE', #98, #152, #66, .T. ) ;
#33 = AXIS2_PLACEMENT_3D ( 'NONE', #211, #176, #30 ) ;
#34 = UNCERTAINTY_MEASURE_WITH_UNIT (LENGTH_MEASURE( 1.000000000000000082E-05 ), #165, 'distance_accuracy_value', 'NONE');
#35 = CALENDAR_DATE ( 2024, 21, 1 ) ;
#36 = ORIENTED_EDGE ( 'NONE', *, *, #55, .T. ) ;
#37 = APPROVAL_STATUS ( 'not_yet_approved' ) ;
#38 = AXIS2_PLACEMENT_3D ( 'NONE', #187, #27, #204 ) ;
#39 = PERSON_AND_ORGANIZATION ( #54, #83 ) ;
#40 = EDGE_CURVE ( 'NONE', #152, #158, #106, .T. ) ;
#41 = ORIENTED_EDGE ( 'NONE', *, *, #19, .F. ) ;
#42 = CC_DESIGN_APPROVAL ( #76, ( #132 ) ) ;
#43 = CARTESIAN_POINT ( 'NONE',  ( -1.447447581088865842, -1.414213562373091815, 0.03323401871576710936 ) ) ;
#44 = CARTESIAN_POINT ( 'NONE',  ( 0.000000000000000000, -1.414213562373096256, -1.414213562373093369 ) ) ;
#45 = CARTESIAN_POINT ( 'NONE',  ( -1.414213562373097810, -1.414213562373091815, -5.463695987328526437E-16 ) ) ;
#46 = AXIS2_PLACEMENT_3D ( 'NONE', #77, #110, #191 ) ;
#47 = CARTESIAN_POINT ( 'NONE',  ( 1.414213562373097810, -1.414213562373091815, -5.463695987328526437E-16 ) ) ;
#48 = AXIS2_PLACEMENT_3D ( 'NONE', #44, #57, #122 ) ;
#49 = DIRECTION ( 'NONE',  ( -0.7071067811865486830, 1.200209628260102537E-16, 0.7071067811865462405 ) ) ;
#50 =( NAMED_UNIT ( * ) SI_UNIT ( $, .STERADIAN. ) SOLID_ANGLE_UNIT ( ) );
#51 = CALENDAR_DATE ( 2024, 21, 1 ) ;
#52 = DESIGN_CONTEXT ( 'detailed design', #154, 'design' ) ;
#53 = ORIENTED_EDGE ( 'NONE', *, *, #67, .T. ) ;
#54 = PERSON ( 'UNSPECIFIED', 'UNSPECIFIED', 'UNSPECIFIED', ('UNSPECIFIED'), ('UNSPECIFIED'), ('UNSPECIFIED') ) ;
#55 = EDGE_CURVE ( 'NONE', #135, #183, #189, .T. ) ;
#56 = EDGE_LOOP ( 'NONE', ( #172, #188, #53, #36 ) ) ;
#57 = DIRECTION ( 'NONE',  ( 0.7071067811865463515, 2.897562362236303384E-16, -0.7071067811865487940 ) ) ;
#58 = DIRECTION ( 'NONE',  ( 0.000000000000000000, -1.000000000000000000, -4.097771990496395814E-16 ) ) ;
#59 = FACE_OUTER_BOUND ( 'NONE', #10, .T. ) ;
#60 = CARTESIAN_POINT ( 'NONE',  ( 0.000000000000000000, -1.414213562373096256, -1.414213562373093369 ) ) ;
#61 = APPROVAL ( #146, 'UNSPECIFIED' ) ;
#62 = DIRECTION ( 'NONE',  ( -0.7071067811865463515, 2.897562362236303877E-16, -0.7071067811865487940 ) ) ;
#63 = APPLICATION_PROTOCOL_DEFINITION ( 'international standard', 'config_control_design', 1994, #85 ) ;
#64 = COORDINATED_UNIVERSAL_TIME_OFFSET ( 8, 0, .BEHIND. ) ;
#65 = FACE_OUTER_BOUND ( 'NONE', #56, .T. ) ;
#66 = CIRCLE ( 'NONE', #212, 2.000000000000000000 ) ;
#67 = EDGE_CURVE ( 'NONE', #158, #135, #103, .T. ) ;
#68 = PERSON_AND_ORGANIZATION_ROLE ( 'creator' ) ;
#69 = SECURITY_CLASSIFICATION_LEVEL ( 'unclassified' ) ;
#70 = CC_DESIGN_APPROVAL ( #61, ( #97 ) ) ;
#71 = ORIENTED_EDGE ( 'NONE', *, *, #32, .F. ) ;
#72 = CARTESIAN_POINT ( 'NONE',  ( 0.000000000000000000, 0.5857864376269035223, -1.414213562373092703 ) ) ;
#73 = PRODUCT_DEFINITION_FORMATION_WITH_SPECIFIED_SOURCE ( 'ANY', '', #114, .NOT_KNOWN. ) ;
#74 = CARTESIAN_POINT ( 'NONE',  ( 0.000000000000000000, -1.414213562373096256, -1.414213562373093369 ) ) ;
#75 = DIRECTION ( 'NONE',  ( 0.000000000000000000, 4.097771990496395814E-16, -1.000000000000000000 ) ) ;
#76 = APPROVAL ( #37, 'UNSPECIFIED' ) ;
#77 = CARTESIAN_POINT ( 'NONE',  ( 0.000000000000000000, -1.414213562373096256, -1.414213562373093369 ) ) ;
#78 = PERSON_AND_ORGANIZATION ( #54, #83 ) ;
#79 = PERSON_AND_ORGANIZATION_ROLE ( 'design_owner' ) ;
#80 = PLANE ( 'NONE',  #207 ) ;
#81 = DATE_AND_TIME ( #2, #148 ) ;
#82 = DATE_AND_TIME ( #35, #88 ) ;
#83 = ORGANIZATION ( 'UNSPECIFIED', 'UNSPECIFIED', '' ) ;
#84 = PRODUCT_RELATED_PRODUCT_CATEGORY ( 'detail', '', ( #114 ) ) ;
#85 = APPLICATION_CONTEXT ( 'configuration controlled 3d designs of mechanical parts and assemblies' ) ;
#86 = CARTESIAN_POINT ( 'NONE',  ( -1.414213562373097810, -1.414213562373091815, -5.463695987328526437E-16 ) ) ;
#87 = DIRECTION ( 'NONE',  ( 0.7071067811865486830, -5.932463502537198661E-15, -0.7071067811865462405 ) ) ;
#88 = LOCAL_TIME ( 10, 19, 49.00000000000000000, #16 ) ;
#89 = CC_DESIGN_PERSON_AND_ORGANIZATION_ASSIGNMENT ( #13, #79, ( #114 ) ) ;
#90 = DIRECTION ( 'NONE',  ( 0.000000000000000000, -4.003685383973027569E-16, 1.000000000000000000 ) ) ;
#91 = CARTESIAN_POINT ( 'NONE',  ( 0.000000000000000000, 0.000000000000000000, 0.000000000000000000 ) ) ;
#92 =( NAMED_UNIT ( * ) PLANE_ANGLE_UNIT ( ) SI_UNIT ( $, .RADIAN. ) );
#93 = FACE_OUTER_BOUND ( 'NONE', #101, .T. ) ;
#94 = APPROVAL_STATUS ( 'not_yet_approved' ) ;
#95 = VECTOR ( 'NONE', #7, 39.37007874015748143 ) ;
#96 = APPLICATION_PROTOCOL_DEFINITION ( 'international standard', 'config_control_design', 1994, #154 ) ;
#97 = PRODUCT_DEFINITION ( 'UNKNOWN', '', #73, #52 ) ;
#98 = VERTEX_POINT ( 'NONE', #45 ) ;
#99 = DATE_AND_TIME ( #51, #156 ) ;
#100 = PERSON_AND_ORGANIZATION ( #54, #83 ) ;
#101 = EDGE_LOOP ( 'NONE', ( #213, #134, #41 ) ) ;
#102 = CIRCLE ( 'NONE', #161, 2.000000000000000000 ) ;
#103 = CIRCLE ( 'NONE', #48, 2.047000000000000153 ) ;
#104 = ADVANCED_FACE ( 'NONE', ( #186 ), #173, .T. ) ;
#105 = CC_DESIGN_DATE_AND_TIME_ASSIGNMENT ( #99, #117, ( #132 ) ) ;
#106 = LINE ( 'NONE', #72, #95 ) ;
#107 = CARTESIAN_POINT ( 'NONE',  ( -2.731847993664263218E-16, 0.6327864376269038971, -1.414213562373092481 ) ) ;
#108 = AXIS2_PLACEMENT_3D ( 'NONE', #175, #203, #26 ) ;
#109 = DIRECTION ( 'NONE',  ( -0.7071067811865487940, -2.669123589315351877E-16, 0.7071067811865462405 ) ) ;
#110 = DIRECTION ( 'NONE',  ( 0.7071067811865462405, -2.897562362236303877E-16, 0.7071067811865487940 ) ) ;
#111 =( LENGTH_UNIT ( ) NAMED_UNIT ( * ) SI_UNIT ( $, .METRE. ) );
#112 = DIRECTION ( 'NONE',  ( 0.000000000000000000, 0.000000000000000000, 1.000000000000000000 ) ) ;
#113 = COORDINATED_UNIVERSAL_TIME_OFFSET ( 8, 0, .BEHIND. ) ;
#114 = PRODUCT ( '400403', '400403', '', ( #193 ) ) ;
#115 = CIRCLE ( 'NONE', #108, 2.047000000000000153 ) ;
#116 = PERSON_AND_ORGANIZATION_ROLE ( 'design_supplier' ) ;
#117 = DATE_TIME_ROLE ( 'classification_date' ) ;
#118 = CC_DESIGN_SECURITY_CLASSIFICATION ( #132, ( #73 ) ) ;
#119 = CC_DESIGN_PERSON_AND_ORGANIZATION_ASSIGNMENT ( #4, #116, ( #73 ) ) ;
#120 = VERTEX_POINT ( 'NONE', #43 ) ;
#121 = LOCAL_TIME ( 10, 19, 49.00000000000000000, #64 ) ;
#122 = DIRECTION ( 'NONE',  ( 0.7071067811865487940, 1.334561794657676185E-16, 0.7071067811865462405 ) ) ;
#123 = DIRECTION ( 'NONE',  ( 0.7071067811865487940, 1.365923996832131609E-16, 0.7071067811865463515 ) ) ;
#124 = CARTESIAN_POINT ( 'NONE',  ( 1.447447581088865398, -1.414213562373091815, 0.03323401871576717875 ) ) ;
#125 = CARTESIAN_POINT ( 'NONE',  ( 0.000000000000000000, -1.414213562373096256, -1.414213562373093369 ) ) ;
#126 = CIRCLE ( 'NONE', #145, 2.047000000000000597 ) ;
#127 = DIRECTION ( 'NONE',  ( -0.7071067811865463515, 2.897562362236303877E-16, -0.7071067811865487940 ) ) ;
#128 = CALENDAR_DATE ( 2024, 21, 1 ) ;
#129 = CALENDAR_DATE ( 2024, 21, 1 ) ;
#130 = EDGE_CURVE ( 'NONE', #158, #120, #115, .T. ) ;
#131 = SPHERICAL_SURFACE ( 'NONE', #46, 2.000000000000000000 ) ;
#132 = SECURITY_CLASSIFICATION ( '', '', #69 ) ;
#133 = ADVANCED_BREP_SHAPE_REPRESENTATION ( '400403', ( #18, #23 ), #21 ) ;
#134 = ORIENTED_EDGE ( 'NONE', *, *, #32, .T. ) ;
#135 = VERTEX_POINT ( 'NONE', #124 ) ;
#136 = ORIENTED_EDGE ( 'NONE', *, *, #139, .T. ) ;
#137 = LOCAL_TIME ( 10, 19, 49.00000000000000000, #113 ) ;
#138 = ORIENTED_EDGE ( 'NONE', *, *, #142, .T. ) ;
#139 = EDGE_CURVE ( 'NONE', #120, #135, #126, .T. ) ;
#140 = LINE ( 'NONE', #86, #185 ) ;
#141 = CARTESIAN_POINT ( 'NONE',  ( 0.000000000000000000, 0.5857864376269035223, -1.414213562373092703 ) ) ;
#142 = EDGE_CURVE ( 'NONE', #120, #98, #140, .T. ) ;
#143 = APPROVAL_ROLE ( '' ) ;
#144 = PERSON_AND_ORGANIZATION_ROLE ( 'creator' ) ;
#145 = AXIS2_PLACEMENT_3D ( 'NONE', #174, #29, #90 ) ;
#146 = APPROVAL_STATUS ( 'not_yet_approved' ) ;
#147 = SHAPE_DEFINITION_REPRESENTATION ( #200, #133 ) ;
#148 = LOCAL_TIME ( 10, 19, 49.00000000000000000, #150 ) ;
#149 = APPROVAL_DATE_TIME ( #81, #76 ) ;
#150 = COORDINATED_UNIVERSAL_TIME_OFFSET ( 8, 0, .BEHIND. ) ;
#151 = VECTOR ( 'NONE', #157, 39.37007874015748854 ) ;
#152 = VERTEX_POINT ( 'NONE', #141 ) ;
#153 = ORIENTED_EDGE ( 'NONE', *, *, #130, .F. ) ;
#154 = APPLICATION_CONTEXT ( 'configuration controlled 3d designs of mechanical parts and assemblies' ) ;
#155 = FACE_OUTER_BOUND ( 'NONE', #22, .T. ) ;
#156 = LOCAL_TIME ( 10, 19, 49.00000000000000000, #20 ) ;
#157 = DIRECTION ( 'NONE',  ( -0.7071067811865486830, -5.932463502537198661E-15, -0.7071067811865462405 ) ) ;
#158 = VERTEX_POINT ( 'NONE', #107 ) ;
#159 = PLANE ( 'NONE',  #184 ) ;
#160 = CC_DESIGN_PERSON_AND_ORGANIZATION_ASSIGNMENT ( #39, #68, ( #73 ) ) ;
#161 = AXIS2_PLACEMENT_3D ( 'NONE', #125, #28, #123 ) ;
#162 = LENGTH_MEASURE_WITH_UNIT ( LENGTH_MEASURE( 0.02539999999999999897 ), #111 );
#163 = APPROVAL_DATE_TIME ( #209, #61 ) ;
#164 = APPROVAL_ROLE ( '' ) ;
#165 =( CONVERSION_BASED_UNIT ( 'INCH', #162 ) LENGTH_UNIT ( ) NAMED_UNIT ( #9 ) );
#166 = PERSON_AND_ORGANIZATION_ROLE ( 'classification_officer' ) ;
#167 = CC_DESIGN_PERSON_AND_ORGANIZATION_ASSIGNMENT ( #208, #144, ( #97 ) ) ;
#168 = ORIENTED_EDGE ( 'NONE', *, *, #40, .F. ) ;
#169 = ADVANCED_FACE ( 'NONE', ( #155 ), #159, .T. ) ;
#170 = APPROVAL_ROLE ( '' ) ;
#171 = ORIENTED_EDGE ( 'NONE', *, *, #55, .F. ) ;
#172 = ORIENTED_EDGE ( 'NONE', *, *, #19, .T. ) ;
#173 = SPHERICAL_SURFACE ( 'NONE', #5, 2.047000000000000153 ) ;
#174 = CARTESIAN_POINT ( 'NONE',  ( 0.000000000000000000, -1.414213562373091371, -1.414213562373093369 ) ) ;
#175 = CARTESIAN_POINT ( 'NONE',  ( 0.000000000000000000, -1.414213562373096256, -1.414213562373093369 ) ) ;
#176 = DIRECTION ( 'NONE',  ( -0.7071067811865463515, -2.897562362236303877E-16, 0.7071067811865487940 ) ) ;
#177 = EDGE_CURVE ( 'NONE', #98, #183, #12, .T. ) ;
#178 = DATE_TIME_ROLE ( 'creation_date' ) ;
#179 = CARTESIAN_POINT ( 'NONE',  ( 0.000000000000000000, -1.414213562373096256, -1.414213562373093369 ) ) ;
#180 = APPROVAL_PERSON_ORGANIZATION ( #181, #76, #170 ) ;
#181 = PERSON_AND_ORGANIZATION ( #54, #83 ) ;
#182 = ADVANCED_FACE ( 'NONE', ( #59 ), #80, .T. ) ;
#183 = VERTEX_POINT ( 'NONE', #14 ) ;
#184 = AXIS2_PLACEMENT_3D ( 'NONE', #8, #58, #75 ) ;
#185 = VECTOR ( 'NONE', #87, 39.37007874015748854 ) ;
#186 = FACE_OUTER_BOUND ( 'NONE', #196, .T. ) ;
#187 = CARTESIAN_POINT ( 'NONE',  ( 0.000000000000000000, -1.414213562373091371, -1.414213562373093369 ) ) ;
#188 = ORIENTED_EDGE ( 'NONE', *, *, #40, .T. ) ;
#189 = LINE ( 'NONE', #47, #151 ) ;
#190 = PLANE ( 'NONE',  #33 ) ;
#191 = DIRECTION ( 'NONE',  ( -0.7071067811865486830, -2.731847993664262725E-16, 0.7071067811865462405 ) ) ;
#192 = DATE_AND_TIME ( #129, #121 ) ;
#193 = MECHANICAL_CONTEXT ( 'NONE', #85, 'mechanical' ) ;
#194 = APPROVAL ( #94, 'UNSPECIFIED' ) ;
#195 = CLOSED_SHELL ( 'NONE', ( #202, #169, #104, #182, #205 ) ) ;
#196 = EDGE_LOOP ( 'NONE', ( #198, #199, #136 ) ) ;
#197 = APPROVAL_DATE_TIME ( #82, #194 ) ;
#198 = ORIENTED_EDGE ( 'NONE', *, *, #67, .F. ) ;
#199 = ORIENTED_EDGE ( 'NONE', *, *, #130, .T. ) ;
#200 = PRODUCT_DEFINITION_SHAPE ( 'NONE', 'NONE',  #97 ) ;
#201 = ORIENTED_EDGE ( 'NONE', *, *, #139, .F. ) ;
#202 = ADVANCED_FACE ( 'NONE', ( #93 ), #131, .F. ) ;
#203 = DIRECTION ( 'NONE',  ( 0.7071067811865463515, -2.897562362236303877E-16, 0.7071067811865487940 ) ) ;
#204 = DIRECTION ( 'NONE',  ( 0.000000000000000000, -4.097771990496393842E-16, 1.000000000000000000 ) ) ;
#205 = ADVANCED_FACE ( 'NONE', ( #65 ), #190, .F. ) ;
#206 = DIRECTION ( 'NONE',  ( 0.7071067811865462405, -2.897562362236302891E-16, 0.7071067811865487940 ) ) ;
#207 = AXIS2_PLACEMENT_3D ( 'NONE', #179, #127, #49 ) ;
#208 = PERSON_AND_ORGANIZATION ( #54, #83 ) ;
#209 = DATE_AND_TIME ( #128, #137 ) ;
#210 = CC_DESIGN_APPROVAL ( #194, ( #73 ) ) ;
#211 = CARTESIAN_POINT ( 'NONE',  ( 0.000000000000000000, -1.414213562373096256, -1.414213562373093369 ) ) ;
#212 = AXIS2_PLACEMENT_3D ( 'NONE', #60, #62, #11 ) ;
#213 = ORIENTED_EDGE ( 'NONE', *, *, #177, .F. ) ;
ENDSEC;
END-ISO-10303-21;
