ISO-10303-21;
HEADER;
FILE_DESCRIPTION (( 'STEP AP203' ),
    '1' );
FILE_NAME ('400503.STEP',
    '2024-01-21T18:05:27',
    ( '' ),
    ( '' ),
    'SwSTEP 2.0',
    'SolidWorks 2021',
    '' );
FILE_SCHEMA (( 'CONFIG_CONTROL_DESIGN' ));
ENDSEC;

DATA;
#1 = APPLICATION_CONTEXT ( 'configuration controlled 3d designs of mechanical parts and assemblies' ) ;
#2 = CIRCLE ( 'NONE', #212, 2.047000000000000153 ) ;
#3 = EDGE_LOOP ( 'NONE', ( #171, #190, #53, #109 ) ) ;
#4 = DIRECTION ( 'NONE',  ( 0.7071067811865462405, -2.897562362236303877E-16, 0.7071067811865487940 ) ) ;
#5 = EDGE_CURVE ( 'NONE', #195, #23, #47, .T. ) ;
#6 = APPROVAL_STATUS ( 'not_yet_approved' ) ;
#7 = DIMENSIONAL_EXPONENTS ( 1.000000000000000000, 0.000000000000000000, 0.000000000000000000, 0.000000000000000000, 0.000000000000000000, 0.000000000000000000, 0.000000000000000000 ) ;
#8 = ORIENTED_EDGE ( 'NONE', *, *, #5, .F. ) ;
#9 = PERSON_AND_ORGANIZATION_ROLE ( 'classification_officer' ) ;
#10 = AXIS2_PLACEMENT_3D ( 'NONE', #86, #150, #211 ) ;
#11 = CALENDAR_DATE ( 2024, 21, 1 ) ;
#12 = CARTESIAN_POINT ( 'NONE',  ( -1.414213562373097810, -1.414213562373091815, -5.463695987328526437E-16 ) ) ;
#13 = PERSON_AND_ORGANIZATION_ROLE ( 'creator' ) ;
#14 = LOCAL_TIME ( 10, 5, 27.00000000000000000, #141 ) ;
#15 = DIRECTION ( 'NONE',  ( 0.7071067811865487940, 1.334561794657676185E-16, 0.7071067811865462405 ) ) ;
#16 = ADVANCED_FACE ( 'NONE', ( #143 ), #196, .T. ) ;
#17 =( LENGTH_UNIT ( ) NAMED_UNIT ( * ) SI_UNIT ( $, .METRE. ) );
#18 = CARTESIAN_POINT ( 'NONE',  ( -1.414213562373097810, -1.414213562373091815, -5.463695987328526437E-16 ) ) ;
#19 = PRODUCT_DEFINITION_SHAPE ( 'NONE', 'NONE',  #170 ) ;
#20 =( NAMED_UNIT ( * ) SI_UNIT ( $, .STERADIAN. ) SOLID_ANGLE_UNIT ( ) );
#21 = LOCAL_TIME ( 10, 5, 27.00000000000000000, #189 ) ;
#22 = CC_DESIGN_PERSON_AND_ORGANIZATION_ASSIGNMENT ( #193, #9, ( #80 ) ) ;
#23 = VERTEX_POINT ( 'NONE', #176 ) ;
#24 = DIRECTION ( 'NONE',  ( 0.000000000000000000, 0.000000000000000000, 1.000000000000000000 ) ) ;
#25 = APPROVAL_DATE_TIME ( #95, #74 ) ;
#26 = PERSON_AND_ORGANIZATION_ROLE ( 'design_owner' ) ;
#27 = CARTESIAN_POINT ( 'NONE',  ( 0.000000000000000000, -1.414213562373096256, -1.414213562373093369 ) ) ;
#28 = AXIS2_PLACEMENT_3D ( 'NONE', #105, #181, #188 ) ;
#29 = CC_DESIGN_DATE_AND_TIME_ASSIGNMENT ( #46, #75, ( #80 ) ) ;
#30 = APPLICATION_CONTEXT ( 'configuration controlled 3d designs of mechanical parts and assemblies' ) ;
#31 = CARTESIAN_POINT ( 'NONE',  ( -1.447447581088865842, -1.414213562373091815, 0.03323401871576710936 ) ) ;
#32 = CARTESIAN_POINT ( 'NONE',  ( -1.414213562373097810, -1.414213562373091815, -5.463695987328526437E-16 ) ) ;
#33 = CARTESIAN_POINT ( 'NONE',  ( 0.000000000000000000, -1.414213562373091371, -1.414213562373093369 ) ) ;
#34 = CIRCLE ( 'NONE', #154, 2.000000000000000000 ) ;
#35 = ORGANIZATION ( 'UNSPECIFIED', 'UNSPECIFIED', '' ) ;
#36 = MANIFOLD_SOLID_BREP ( 'Revolve1', #160 ) ;
#37 = DESIGN_CONTEXT ( 'detailed design', #1, 'design' ) ;
#38 = AXIS2_PLACEMENT_3D ( 'NONE', #135, #4, #199 ) ;
#39 = EDGE_CURVE ( 'NONE', #68, #195, #44, .T. ) ;
#40 = ORIENTED_EDGE ( 'NONE', *, *, #58, .F. ) ;
#41 = CALENDAR_DATE ( 2024, 21, 1 ) ;
#42 = ORIENTED_EDGE ( 'NONE', *, *, #58, .T. ) ;
#43 = COORDINATED_UNIVERSAL_TIME_OFFSET ( 8, 0, .BEHIND. ) ;
#44 = CIRCLE ( 'NONE', #166, 2.047000000000000153 ) ;
#45 = CARTESIAN_POINT ( 'NONE',  ( -2.731847993664263218E-16, 0.6327864376269038971, -1.414213562373092481 ) ) ;
#46 = DATE_AND_TIME ( #146, #85 ) ;
#47 = LINE ( 'NONE', #163, #177 ) ;
#48 = SHAPE_DEFINITION_REPRESENTATION ( #19, #213 ) ;
#49 = APPROVAL ( #6, 'UNSPECIFIED' ) ;
#50 = DIRECTION ( 'NONE',  ( -0.7071067811865463515, 2.897562362236303877E-16, -0.7071067811865487940 ) ) ;
#51 = PERSON_AND_ORGANIZATION ( #92, #35 ) ;
#52 = LOCAL_TIME ( 10, 5, 27.00000000000000000, #110 ) ;
#53 = ORIENTED_EDGE ( 'NONE', *, *, #39, .T. ) ;
#54 = CARTESIAN_POINT ( 'NONE',  ( 0.000000000000000000, 0.000000000000000000, 0.000000000000000000 ) ) ;
#55 = CIRCLE ( 'NONE', #182, 2.047000000000000597 ) ;
#56 = DIRECTION ( 'NONE',  ( 0.000000000000000000, 4.097771990496395814E-16, -1.000000000000000000 ) ) ;
#57 = PERSON_AND_ORGANIZATION ( #92, #35 ) ;
#58 = EDGE_CURVE ( 'NONE', #68, #65, #2, .T. ) ;
#59 = DIRECTION ( 'NONE',  ( -0.7071067811865486830, -5.932463502537198661E-15, -0.7071067811865462405 ) ) ;
#60 = CIRCLE ( 'NONE', #28, 2.000000000000000444 ) ;
#61 = FACE_OUTER_BOUND ( 'NONE', #138, .T. ) ;
#62 = DIRECTION ( 'NONE',  ( -0.000000000000000000, 1.000000000000000000, 4.097771990496395814E-16 ) ) ;
#63 = ADVANCED_FACE ( 'NONE', ( #98 ), #192, .F. ) ;
#64 = CARTESIAN_POINT ( 'NONE',  ( 0.000000000000000000, -1.414213562373096256, -1.414213562373093369 ) ) ;
#65 = VERTEX_POINT ( 'NONE', #31 ) ;
#66 = PLANE ( 'NONE',  #10 ) ;
#67 = APPROVAL_ROLE ( '' ) ;
#68 = VERTEX_POINT ( 'NONE', #45 ) ;
#69 =( GEOMETRIC_REPRESENTATION_CONTEXT ( 3 ) GLOBAL_UNCERTAINTY_ASSIGNED_CONTEXT ( ( #102 ) ) GLOBAL_UNIT_ASSIGNED_CONTEXT ( ( #139, #187, #20 ) ) REPRESENTATION_CONTEXT ( 'NONE', 'WORKASPACE' ) );
#70 = PERSON_AND_ORGANIZATION ( #92, #35 ) ;
#71 = ORIENTED_EDGE ( 'NONE', *, *, #194, .F. ) ;
#72 = DATE_AND_TIME ( #11, #52 ) ;
#73 = DIRECTION ( 'NONE',  ( 0.000000000000000000, -1.000000000000000000, -4.097771990496395814E-16 ) ) ;
#74 = APPROVAL ( #127, 'UNSPECIFIED' ) ;
#75 = DATE_TIME_ROLE ( 'classification_date' ) ;
#76 = CARTESIAN_POINT ( 'NONE',  ( 0.000000000000000000, -1.414213562373096256, -1.414213562373093369 ) ) ;
#77 = CC_DESIGN_PERSON_AND_ORGANIZATION_ASSIGNMENT ( #144, #174, ( #120 ) ) ;
#78 = DIRECTION ( 'NONE',  ( 0.7071067811865463515, 2.897562362236303384E-16, -0.7071067811865487940 ) ) ;
#79 = DIRECTION ( 'NONE',  ( 0.7071067811865487940, 1.365923996832131609E-16, 0.7071067811865463515 ) ) ;
#80 = SECURITY_CLASSIFICATION ( '', '', #172 ) ;
#81 = EDGE_CURVE ( 'NONE', #65, #113, #97, .T. ) ;
#82 = VECTOR ( 'NONE', #168, 39.37007874015748143 ) ;
#83 = SPHERICAL_SURFACE ( 'NONE', #38, 2.000000000000000000 ) ;
#84 = ORIENTED_EDGE ( 'NONE', *, *, #81, .T. ) ;
#85 = LOCAL_TIME ( 10, 5, 27.00000000000000000, #114 ) ;
#86 = CARTESIAN_POINT ( 'NONE',  ( 0.000000000000000000, -1.414213562373096256, -1.414213562373093369 ) ) ;
#87 = APPLICATION_PROTOCOL_DEFINITION ( 'international standard', 'config_control_design', 1994, #30 ) ;
#88 = APPROVAL ( #125, 'UNSPECIFIED' ) ;
#89 = CALENDAR_DATE ( 2024, 21, 1 ) ;
#90 = ORIENTED_EDGE ( 'NONE', *, *, #194, .T. ) ;
#91 = CC_DESIGN_SECURITY_CLASSIFICATION ( #80, ( #120 ) ) ;
#92 = PERSON ( 'UNSPECIFIED', 'UNSPECIFIED', 'UNSPECIFIED', ('UNSPECIFIED'), ('UNSPECIFIED'), ('UNSPECIFIED') ) ;
#93 = CALENDAR_DATE ( 2024, 21, 1 ) ;
#94 = ORIENTED_EDGE ( 'NONE', *, *, #39, .F. ) ;
#95 = DATE_AND_TIME ( #89, #149 ) ;
#96 = DIRECTION ( 'NONE',  ( -0.7071067811865463515, -2.897562362236303877E-16, 0.7071067811865487940 ) ) ;
#97 = LINE ( 'NONE', #12, #103 ) ;
#98 = FACE_OUTER_BOUND ( 'NONE', #3, .T. ) ;
#99 = DIRECTION ( 'NONE',  ( 0.000000000000000000, -4.003685383973027569E-16, 1.000000000000000000 ) ) ;
#100 = CARTESIAN_POINT ( 'NONE',  ( 0.000000000000000000, 0.5857864376269035223, -1.414213562373092703 ) ) ;
#101 = ADVANCED_FACE ( 'NONE', ( #134 ), #117, .T. ) ;
#102 = UNCERTAINTY_MEASURE_WITH_UNIT (LENGTH_MEASURE( 1.000000000000000082E-05 ), #139, 'distance_accuracy_value', 'NONE');
#103 = VECTOR ( 'NONE', #148, 39.37007874015748854 ) ;
#104 = ORIENTED_EDGE ( 'NONE', *, *, #184, .F. ) ;
#105 = CARTESIAN_POINT ( 'NONE',  ( 0.000000000000000000, -1.414213562373091371, -1.414213562373093369 ) ) ;
#106 = AXIS2_PLACEMENT_3D ( 'NONE', #27, #167, #128 ) ;
#107 = APPROVAL_PERSON_ORGANIZATION ( #191, #74, #142 ) ;
#108 = CC_DESIGN_PERSON_AND_ORGANIZATION_ASSIGNMENT ( #70, #26, ( #183 ) ) ;
#109 = ORIENTED_EDGE ( 'NONE', *, *, #5, .T. ) ;
#110 = COORDINATED_UNIVERSAL_TIME_OFFSET ( 8, 0, .BEHIND. ) ;
#111 = APPLICATION_PROTOCOL_DEFINITION ( 'international standard', 'config_control_design', 1994, #1 ) ;
#112 = EDGE_CURVE ( 'NONE', #23, #133, #34, .T. ) ;
#113 = VERTEX_POINT ( 'NONE', #18 ) ;
#114 = COORDINATED_UNIVERSAL_TIME_OFFSET ( 8, 0, .BEHIND. ) ;
#115 = CARTESIAN_POINT ( 'NONE',  ( 0.000000000000000000, -1.414213562373096256, -1.414213562373093369 ) ) ;
#116 = ORIENTED_EDGE ( 'NONE', *, *, #151, .F. ) ;
#117 = PLANE ( 'NONE',  #129 ) ;
#118 = CIRCLE ( 'NONE', #131, 2.000000000000000000 ) ;
#119 = LINE ( 'NONE', #100, #82 ) ;
#120 = PRODUCT_DEFINITION_FORMATION_WITH_SPECIFIED_SOURCE ( 'ANY', '', #183, .NOT_KNOWN. ) ;
#121 = ORIENTED_EDGE ( 'NONE', *, *, #112, .F. ) ;
#122 = ADVANCED_FACE ( 'NONE', ( #169 ), #66, .T. ) ;
#123 = APPROVAL_PERSON_ORGANIZATION ( #202, #49, #162 ) ;
#124 = APPROVAL_DATE_TIME ( #205, #88 ) ;
#125 = APPROVAL_STATUS ( 'not_yet_approved' ) ;
#126 = PRODUCT_RELATED_PRODUCT_CATEGORY ( 'detail', '', ( #183 ) ) ;
#127 = APPROVAL_STATUS ( 'not_yet_approved' ) ;
#128 = DIRECTION ( 'NONE',  ( -0.7071067811865487940, -2.669123589315351877E-16, 0.7071067811865462405 ) ) ;
#129 = AXIS2_PLACEMENT_3D ( 'NONE', #32, #73, #56 ) ;
#130 = DIRECTION ( 'NONE',  ( 1.000000000000000000, 0.000000000000000000, 0.000000000000000000 ) ) ;
#131 = AXIS2_PLACEMENT_3D ( 'NONE', #64, #50, #210 ) ;
#132 = CARTESIAN_POINT ( 'NONE',  ( 0.000000000000000000, -1.414213562373096256, -1.414213562373093369 ) ) ;
#133 = VERTEX_POINT ( 'NONE', #153 ) ;
#134 = FACE_OUTER_BOUND ( 'NONE', #156, .T. ) ;
#135 = CARTESIAN_POINT ( 'NONE',  ( 0.000000000000000000, -1.414213562373096256, -1.414213562373093369 ) ) ;
#136 = LENGTH_MEASURE_WITH_UNIT ( LENGTH_MEASURE( 0.02539999999999999897 ), #17 );
#137 = CC_DESIGN_APPROVAL ( #49, ( #120 ) ) ;
#138 = EDGE_LOOP ( 'NONE', ( #104, #173, #121 ) ) ;
#139 =( CONVERSION_BASED_UNIT ( 'INCH', #136 ) LENGTH_UNIT ( ) NAMED_UNIT ( #7 ) );
#140 = ORIENTED_EDGE ( 'NONE', *, *, #81, .F. ) ;
#141 = COORDINATED_UNIVERSAL_TIME_OFFSET ( 8, 0, .BEHIND. ) ;
#142 = APPROVAL_ROLE ( '' ) ;
#143 = FACE_OUTER_BOUND ( 'NONE', #209, .T. ) ;
#144 = PERSON_AND_ORGANIZATION ( #92, #35 ) ;
#145 = DIRECTION ( 'NONE',  ( -0.7071067811865487940, 1.334561794657676185E-16, 0.7071067811865462405 ) ) ;
#146 = CALENDAR_DATE ( 2024, 21, 1 ) ;
#147 = EDGE_CURVE ( 'NONE', #133, #68, #119, .T. ) ;
#148 = DIRECTION ( 'NONE',  ( 0.7071067811865486830, -5.932463502537198661E-15, -0.7071067811865462405 ) ) ;
#149 = LOCAL_TIME ( 10, 5, 27.00000000000000000, #43 ) ;
#150 = DIRECTION ( 'NONE',  ( -0.7071067811865463515, 2.897562362236303877E-16, -0.7071067811865487940 ) ) ;
#151 = EDGE_CURVE ( 'NONE', #113, #133, #118, .T. ) ;
#152 = CARTESIAN_POINT ( 'NONE',  ( 1.447447581088865398, -1.414213562373091815, 0.03323401871576717875 ) ) ;
#153 = CARTESIAN_POINT ( 'NONE',  ( 0.000000000000000000, 0.5857864376269035223, -1.414213562373092703 ) ) ;
#154 = AXIS2_PLACEMENT_3D ( 'NONE', #115, #165, #79 ) ;
#155 = ADVANCED_FACE ( 'NONE', ( #61 ), #83, .F. ) ;
#156 = EDGE_LOOP ( 'NONE', ( #71, #84, #158, #8 ) ) ;
#157 = MECHANICAL_CONTEXT ( 'NONE', #30, 'mechanical' ) ;
#158 = ORIENTED_EDGE ( 'NONE', *, *, #184, .T. ) ;
#159 = PERSON_AND_ORGANIZATION ( #92, #35 ) ;
#160 = CLOSED_SHELL ( 'NONE', ( #155, #101, #16, #122, #63 ) ) ;
#161 = APPROVAL_DATE_TIME ( #72, #49 ) ;
#162 = APPROVAL_ROLE ( '' ) ;
#163 = CARTESIAN_POINT ( 'NONE',  ( 1.414213562373097810, -1.414213562373091815, -5.463695987328526437E-16 ) ) ;
#164 = PERSON_AND_ORGANIZATION_ROLE ( 'creator' ) ;
#165 = DIRECTION ( 'NONE',  ( -0.7071067811865463515, -2.897562362236303384E-16, 0.7071067811865487940 ) ) ;
#166 = AXIS2_PLACEMENT_3D ( 'NONE', #132, #78, #15 ) ;
#167 = DIRECTION ( 'NONE',  ( 0.7071067811865462405, -2.897562362236302891E-16, 0.7071067811865487940 ) ) ;
#168 = DIRECTION ( 'NONE',  ( -3.820261298863317739E-15, 1.000000000000000000, 4.230038497912942924E-15 ) ) ;
#169 = FACE_OUTER_BOUND ( 'NONE', #200, .T. ) ;
#170 = PRODUCT_DEFINITION ( 'UNKNOWN', '', #120, #37 ) ;
#171 = ORIENTED_EDGE ( 'NONE', *, *, #112, .T. ) ;
#172 = SECURITY_CLASSIFICATION_LEVEL ( 'unclassified' ) ;
#173 = ORIENTED_EDGE ( 'NONE', *, *, #151, .T. ) ;
#174 = PERSON_AND_ORGANIZATION_ROLE ( 'design_supplier' ) ;
#175 = CC_DESIGN_PERSON_AND_ORGANIZATION_ASSIGNMENT ( #51, #13, ( #170 ) ) ;
#176 = CARTESIAN_POINT ( 'NONE',  ( 1.414213562373097810, -1.414213562373091815, -5.463695987328526437E-16 ) ) ;
#177 = VECTOR ( 'NONE', #59, 39.37007874015748854 ) ;
#178 = APPROVAL_PERSON_ORGANIZATION ( #57, #88, #67 ) ;
#179 = CARTESIAN_POINT ( 'NONE',  ( 0.000000000000000000, -1.414213562373096256, -1.414213562373093369 ) ) ;
#180 = CC_DESIGN_DATE_AND_TIME_ASSIGNMENT ( #204, #208, ( #170 ) ) ;
#181 = DIRECTION ( 'NONE',  ( -0.000000000000000000, 1.000000000000000000, 4.097771990496395814E-16 ) ) ;
#182 = AXIS2_PLACEMENT_3D ( 'NONE', #33, #62, #99 ) ;
#183 = PRODUCT ( '400503', '400503', '', ( #157 ) ) ;
#184 = EDGE_CURVE ( 'NONE', #113, #23, #60, .T. ) ;
#185 = AXIS2_PLACEMENT_3D ( 'NONE', #179, #96, #206 ) ;
#186 = CC_DESIGN_PERSON_AND_ORGANIZATION_ASSIGNMENT ( #159, #164, ( #120 ) ) ;
#187 =( NAMED_UNIT ( * ) PLANE_ANGLE_UNIT ( ) SI_UNIT ( $, .RADIAN. ) );
#188 = DIRECTION ( 'NONE',  ( 0.000000000000000000, -4.097771990496393842E-16, 1.000000000000000000 ) ) ;
#189 = COORDINATED_UNIVERSAL_TIME_OFFSET ( 8, 0, .BEHIND. ) ;
#190 = ORIENTED_EDGE ( 'NONE', *, *, #147, .T. ) ;
#191 = PERSON_AND_ORGANIZATION ( #92, #35 ) ;
#192 = PLANE ( 'NONE',  #185 ) ;
#193 = PERSON_AND_ORGANIZATION ( #92, #35 ) ;
#194 = EDGE_CURVE ( 'NONE', #65, #195, #55, .T. ) ;
#195 = VERTEX_POINT ( 'NONE', #152 ) ;
#196 = SPHERICAL_SURFACE ( 'NONE', #106, 2.047000000000000153 ) ;
#197 = DIRECTION ( 'NONE',  ( 0.7071067811865463515, -2.897562362236303877E-16, 0.7071067811865487940 ) ) ;
#198 = AXIS2_PLACEMENT_3D ( 'NONE', #54, #24, #130 ) ;
#199 = DIRECTION ( 'NONE',  ( -0.7071067811865486830, -2.731847993664262725E-16, 0.7071067811865462405 ) ) ;
#200 = EDGE_LOOP ( 'NONE', ( #116, #140, #40, #203 ) ) ;
#201 = CC_DESIGN_APPROVAL ( #88, ( #80 ) ) ;
#202 = PERSON_AND_ORGANIZATION ( #92, #35 ) ;
#203 = ORIENTED_EDGE ( 'NONE', *, *, #147, .F. ) ;
#204 = DATE_AND_TIME ( #93, #14 ) ;
#205 = DATE_AND_TIME ( #41, #21 ) ;
#206 = DIRECTION ( 'NONE',  ( 0.7071067811865486830, 1.200209628260102044E-16, 0.7071067811865462405 ) ) ;
#207 = CC_DESIGN_APPROVAL ( #74, ( #170 ) ) ;
#208 = DATE_TIME_ROLE ( 'creation_date' ) ;
#209 = EDGE_LOOP ( 'NONE', ( #94, #42, #90 ) ) ;
#210 = DIRECTION ( 'NONE',  ( -0.7071067811865487940, 1.365923996832131609E-16, 0.7071067811865463515 ) ) ;
#211 = DIRECTION ( 'NONE',  ( -0.7071067811865486830, 1.200209628260102537E-16, 0.7071067811865462405 ) ) ;
#212 = AXIS2_PLACEMENT_3D ( 'NONE', #76, #197, #145 ) ;
#213 = ADVANCED_BREP_SHAPE_REPRESENTATION ( '400503', ( #36, #198 ), #69 ) ;
ENDSEC;
END-ISO-10303-21;
