ISO-10303-21;
HEADER;
FILE_DESCRIPTION (( 'STEP AP203' ),
    '1' );
FILE_NAME ('400904.STEP',
    '2024-01-21T18:26:29',
    ( '' ),
    ( '' ),
    'SwSTEP 2.0',
    'SolidWorks 2021',
    '' );
FILE_SCHEMA (( 'CONFIG_CONTROL_DESIGN' ));
ENDSEC;

DATA;
#1 = PRODUCT_DEFINITION_SHAPE ( 'NONE', 'NONE',  #152 ) ;
#2 = SECURITY_CLASSIFICATION ( '', '', #46 ) ;
#3 = EDGE_CURVE ( 'NONE', #41, #56, #10, .T. ) ;
#4 = VERTEX_POINT ( 'NONE', #137 ) ;
#5 = CIRCLE ( 'NONE', #117, 2.000000000000000000 ) ;
#6 = EDGE_LOOP ( 'NONE', ( #153, #127, #89, #92 ) ) ;
#7 = ORIENTED_EDGE ( 'NONE', *, *, #150, .F. ) ;
#8 = APPROVAL_DATE_TIME ( #156, #102 ) ;
#9 = ORIENTED_EDGE ( 'NONE', *, *, #67, .F. ) ;
#10 = CIRCLE ( 'NONE', #188, 2.060000000000000053 ) ;
#11 = LOCAL_TIME ( 10, 26, 29.00000000000000000, #174 ) ;
#12 = CC_DESIGN_DATE_AND_TIME_ASSIGNMENT ( #99, #206, ( #2 ) ) ;
#13 = APPROVAL_ROLE ( '' ) ;
#14 = DIRECTION ( 'NONE',  ( 0.000000000000000000, -1.000000000000000000, -4.097771990496395814E-16 ) ) ;
#15 = DATE_TIME_ROLE ( 'creation_date' ) ;
#16 = DIRECTION ( 'NONE',  ( -0.7071067811865463515, -2.897562362236303877E-16, 0.7071067811865487940 ) ) ;
#17 = APPROVAL_DATE_TIME ( #192, #81 ) ;
#18 = ORGANIZATION ( 'UNSPECIFIED', 'UNSPECIFIED', '' ) ;
#19 = CARTESIAN_POINT ( 'NONE',  ( -1.414213562373097810, -1.414213562373091815, -5.463695987328526437E-16 ) ) ;
#20 = DIRECTION ( 'NONE',  ( -0.7071067811865463515, 2.897562362236303877E-16, -0.7071067811865487940 ) ) ;
#21 = ORIENTED_EDGE ( 'NONE', *, *, #200, .T. ) ;
#22 = CIRCLE ( 'NONE', #93, 2.000000000000000444 ) ;
#23 = VERTEX_POINT ( 'NONE', #113 ) ;
#24 = MECHANICAL_CONTEXT ( 'NONE', #155, 'mechanical' ) ;
#25 = CIRCLE ( 'NONE', #131, 2.060000000000000497 ) ;
#26 = APPROVAL_PERSON_ORGANIZATION ( #83, #81, #78 ) ;
#27 = LINE ( 'NONE', #34, #77 ) ;
#28 = CARTESIAN_POINT ( 'NONE',  ( -1.414213562373097810, -1.414213562373091815, -5.463695987328526437E-16 ) ) ;
#29 = CARTESIAN_POINT ( 'NONE',  ( 0.000000000000000000, -1.414213562373096256, -1.414213562373093369 ) ) ;
#30 = CC_DESIGN_DATE_AND_TIME_ASSIGNMENT ( #185, #15, ( #152 ) ) ;
#31 = DIRECTION ( 'NONE',  ( 0.7071067811865462405, -2.897562362236303877E-16, 0.7071067811865487940 ) ) ;
#32 = ADVANCED_FACE ( 'NONE', ( #60 ), #62, .F. ) ;
#33 = AXIS2_PLACEMENT_3D ( 'NONE', #28, #14, #58 ) ;
#34 = CARTESIAN_POINT ( 'NONE',  ( 0.000000000000000000, 0.5857864376269035223, -1.414213562373092703 ) ) ;
#35 = CIRCLE ( 'NONE', #154, 2.060000000000000053 ) ;
#36 = EDGE_CURVE ( 'NONE', #171, #4, #5, .T. ) ;
#37 =( CONVERSION_BASED_UNIT ( 'INCH', #107 ) LENGTH_UNIT ( ) NAMED_UNIT ( #85 ) );
#38 = EDGE_LOOP ( 'NONE', ( #197, #21, #87 ) ) ;
#39 = AXIS2_PLACEMENT_3D ( 'NONE', #116, #16, #84 ) ;
#40 = LOCAL_TIME ( 10, 26, 29.00000000000000000, #201 ) ;
#41 = VERTEX_POINT ( 'NONE', #79 ) ;
#42 = APPLICATION_PROTOCOL_DEFINITION ( 'international standard', 'config_control_design', 1994, #167 ) ;
#43 = CC_DESIGN_APPROVAL ( #81, ( #2 ) ) ;
#44 = CARTESIAN_POINT ( 'NONE',  ( -1.414213562373097810, -1.414213562373091815, -5.463695987328526437E-16 ) ) ;
#45 = DIRECTION ( 'NONE',  ( -0.7071067811865486830, -2.652279605499284908E-16, 0.7071067811865463515 ) ) ;
#46 = SECURITY_CLASSIFICATION_LEVEL ( 'unclassified' ) ;
#47 = CC_DESIGN_PERSON_AND_ORGANIZATION_ASSIGNMENT ( #115, #61, ( #164 ) ) ;
#48 = PERSON_AND_ORGANIZATION ( #129, #18 ) ;
#49 = UNCERTAINTY_MEASURE_WITH_UNIT (LENGTH_MEASURE( 1.000000000000000082E-05 ), #37, 'distance_accuracy_value', 'NONE');
#50 = CARTESIAN_POINT ( 'NONE',  ( 0.000000000000000000, -1.414213562373096256, -1.414213562373093369 ) ) ;
#51 = AXIS2_PLACEMENT_3D ( 'NONE', #103, #52, #183 ) ;
#52 = DIRECTION ( 'NONE',  ( -0.7071067811865463515, -2.897562362236303384E-16, 0.7071067811865487940 ) ) ;
#53 = CC_DESIGN_SECURITY_CLASSIFICATION ( #2, ( #164 ) ) ;
#54 = ORIENTED_EDGE ( 'NONE', *, *, #36, .F. ) ;
#55 = ORIENTED_EDGE ( 'NONE', *, *, #210, .F. ) ;
#56 = VERTEX_POINT ( 'NONE', #181 ) ;
#57 = CARTESIAN_POINT ( 'NONE',  ( 0.000000000000000000, 0.000000000000000000, 0.000000000000000000 ) ) ;
#58 = DIRECTION ( 'NONE',  ( 0.000000000000000000, 4.097771990496395814E-16, -1.000000000000000000 ) ) ;
#59 = COORDINATED_UNIVERSAL_TIME_OFFSET ( 8, 0, .BEHIND. ) ;
#60 = FACE_OUTER_BOUND ( 'NONE', #6, .T. ) ;
#61 = PERSON_AND_ORGANIZATION_ROLE ( 'design_supplier' ) ;
#62 = PLANE ( 'NONE',  #39 ) ;
#63 = APPROVAL_DATE_TIME ( #190, #111 ) ;
#64 = CC_DESIGN_PERSON_AND_ORGANIZATION_ASSIGNMENT ( #118, #162, ( #2 ) ) ;
#65 = CC_DESIGN_APPROVAL ( #111, ( #164 ) ) ;
#66 = DIRECTION ( 'NONE',  ( 0.7071067811865486830, 1.326139802749642207E-16, 0.7071067811865462405 ) ) ;
#67 = EDGE_CURVE ( 'NONE', #23, #56, #25, .T. ) ;
#68 = CARTESIAN_POINT ( 'NONE',  ( 1.414213562373097810, -1.414213562373091815, -5.463695987328526437E-16 ) ) ;
#69 = APPROVAL_PERSON_ORGANIZATION ( #110, #102, #13 ) ;
#70 = EDGE_CURVE ( 'NONE', #23, #171, #97, .T. ) ;
#71 = APPROVAL_STATUS ( 'not_yet_approved' ) ;
#72 = AXIS2_PLACEMENT_3D ( 'NONE', #213, #193, #121 ) ;
#73 = CALENDAR_DATE ( 2024, 21, 1 ) ;
#74 = DIRECTION ( 'NONE',  ( -0.7071067811865486830, -4.673100952266434431E-15, -0.7071067811865462405 ) ) ;
#75 = PERSON_AND_ORGANIZATION ( #129, #18 ) ;
#76 = CARTESIAN_POINT ( 'NONE',  ( 0.000000000000000000, -1.414213562373091371, -1.414213562373093369 ) ) ;
#77 = VECTOR ( 'NONE', #101, 39.37007874015748143 ) ;
#78 = APPROVAL_ROLE ( '' ) ;
#79 = CARTESIAN_POINT ( 'NONE',  ( -2.731847993664263218E-16, 0.6457864376269036866, -1.414213562373092481 ) ) ;
#80 = PERSON_AND_ORGANIZATION_ROLE ( 'creator' ) ;
#81 = APPROVAL ( #211, 'UNSPECIFIED' ) ;
#82 = SHAPE_DEFINITION_REPRESENTATION ( #1, #125 ) ;
#83 = PERSON_AND_ORGANIZATION ( #129, #18 ) ;
#84 = DIRECTION ( 'NONE',  ( 0.7071067811865486830, 1.200209628260102044E-16, 0.7071067811865462405 ) ) ;
#85 = DIMENSIONAL_EXPONENTS ( 1.000000000000000000, 0.000000000000000000, 0.000000000000000000, 0.000000000000000000, 0.000000000000000000, 0.000000000000000000, 0.000000000000000000 ) ;
#86 = VECTOR ( 'NONE', #173, 39.37007874015748854 ) ;
#87 = ORIENTED_EDGE ( 'NONE', *, *, #67, .T. ) ;
#88 =( NAMED_UNIT ( * ) PLANE_ANGLE_UNIT ( ) SI_UNIT ( $, .RADIAN. ) );
#89 = ORIENTED_EDGE ( 'NONE', *, *, #3, .T. ) ;
#90 = PERSON_AND_ORGANIZATION_ROLE ( 'design_owner' ) ;
#91 = EDGE_LOOP ( 'NONE', ( #108, #130, #55 ) ) ;
#92 = ORIENTED_EDGE ( 'NONE', *, *, #150, .T. ) ;
#93 = AXIS2_PLACEMENT_3D ( 'NONE', #95, #158, #186 ) ;
#94 = PERSON_AND_ORGANIZATION ( #129, #18 ) ;
#95 = CARTESIAN_POINT ( 'NONE',  ( 0.000000000000000000, -1.414213562373091371, -1.414213562373093369 ) ) ;
#96 = DIRECTION ( 'NONE',  ( 0.7071067811865463515, -2.897562362236303877E-16, 0.7071067811865487940 ) ) ;
#97 = LINE ( 'NONE', #19, #86 ) ;
#98 = CC_DESIGN_APPROVAL ( #102, ( #152 ) ) ;
#99 = DATE_AND_TIME ( #209, #124 ) ;
#100 = DIRECTION ( 'NONE',  ( -0.7071067811865486830, -2.731847993664262725E-16, 0.7071067811865462405 ) ) ;
#101 = DIRECTION ( 'NONE',  ( -2.929757499594489364E-15, 1.000000000000000000, 3.339534698644118493E-15 ) ) ;
#102 = APPROVAL ( #71, 'UNSPECIFIED' ) ;
#103 = CARTESIAN_POINT ( 'NONE',  ( 0.000000000000000000, -1.414213562373096256, -1.414213562373093369 ) ) ;
#104 = AXIS2_PLACEMENT_3D ( 'NONE', #189, #31, #100 ) ;
#105 = LOCAL_TIME ( 10, 26, 29.00000000000000000, #59 ) ;
#106 = ORIENTED_EDGE ( 'NONE', *, *, #70, .F. ) ;
#107 = LENGTH_MEASURE_WITH_UNIT ( LENGTH_MEASURE( 0.02539999999999999897 ), #182 );
#108 = ORIENTED_EDGE ( 'NONE', *, *, #175, .F. ) ;
#109 = ORIENTED_EDGE ( 'NONE', *, *, #200, .F. ) ;
#110 = PERSON_AND_ORGANIZATION ( #129, #18 ) ;
#111 = APPROVAL ( #143, 'UNSPECIFIED' ) ;
#112 = FACE_OUTER_BOUND ( 'NONE', #195, .T. ) ;
#113 = CARTESIAN_POINT ( 'NONE',  ( -1.456639969244290844, -1.414213562373091815, 0.04242640687119218768 ) ) ;
#114 = FACE_OUTER_BOUND ( 'NONE', #91, .T. ) ;
#115 = PERSON_AND_ORGANIZATION ( #129, #18 ) ;
#116 = CARTESIAN_POINT ( 'NONE',  ( 0.000000000000000000, -1.414213562373096256, -1.414213562373093369 ) ) ;
#117 = AXIS2_PLACEMENT_3D ( 'NONE', #177, #20, #204 ) ;
#118 = PERSON_AND_ORGANIZATION ( #129, #18 ) ;
#119 = ADVANCED_FACE ( 'NONE', ( #191 ), #166, .T. ) ;
#120 = AXIS2_PLACEMENT_3D ( 'NONE', #57, #140, #159 ) ;
#121 = DIRECTION ( 'NONE',  ( -0.7071067811865486830, 1.200209628260102537E-16, 0.7071067811865462405 ) ) ;
#122 = DESIGN_CONTEXT ( 'detailed design', #167, 'design' ) ;
#123 = ADVANCED_FACE ( 'NONE', ( #202 ), #142, .T. ) ;
#124 = LOCAL_TIME ( 10, 26, 29.00000000000000000, #179 ) ;
#125 = ADVANCED_BREP_SHAPE_REPRESENTATION ( '400904', ( #148, #120 ), #180 ) ;
#126 = EDGE_CURVE ( 'NONE', #4, #41, #27, .T. ) ;
#127 = ORIENTED_EDGE ( 'NONE', *, *, #126, .T. ) ;
#128 = PERSON_AND_ORGANIZATION_ROLE ( 'creator' ) ;
#129 = PERSON ( 'UNSPECIFIED', 'UNSPECIFIED', 'UNSPECIFIED', ('UNSPECIFIED'), ('UNSPECIFIED'), ('UNSPECIFIED') ) ;
#130 = ORIENTED_EDGE ( 'NONE', *, *, #36, .T. ) ;
#131 = AXIS2_PLACEMENT_3D ( 'NONE', #76, #147, #133 ) ;
#132 = CALENDAR_DATE ( 2024, 21, 1 ) ;
#133 = DIRECTION ( 'NONE',  ( 0.000000000000000000, -3.978419408248925883E-16, 1.000000000000000000 ) ) ;
#134 = SPHERICAL_SURFACE ( 'NONE', #104, 2.000000000000000000 ) ;
#135 = COORDINATED_UNIVERSAL_TIME_OFFSET ( 8, 0, .BEHIND. ) ;
#136 = CC_DESIGN_PERSON_AND_ORGANIZATION_ASSIGNMENT ( #48, #80, ( #164 ) ) ;
#137 = CARTESIAN_POINT ( 'NONE',  ( 0.000000000000000000, 0.5857864376269035223, -1.414213562373092703 ) ) ;
#138 = LOCAL_TIME ( 10, 26, 29.00000000000000000, #135 ) ;
#139 = PRODUCT_RELATED_PRODUCT_CATEGORY ( 'detail', '', ( #151 ) ) ;
#140 = DIRECTION ( 'NONE',  ( 0.000000000000000000, 0.000000000000000000, 1.000000000000000000 ) ) ;
#141 = PERSON_AND_ORGANIZATION ( #129, #18 ) ;
#142 = PLANE ( 'NONE',  #72 ) ;
#143 = APPROVAL_STATUS ( 'not_yet_approved' ) ;
#144 = DIRECTION ( 'NONE',  ( -0.7071067811865486830, 1.326139802749642207E-16, 0.7071067811865462405 ) ) ;
#145 = CIRCLE ( 'NONE', #51, 2.000000000000000000 ) ;
#146 = CALENDAR_DATE ( 2024, 21, 1 ) ;
#147 = DIRECTION ( 'NONE',  ( -0.000000000000000000, 1.000000000000000000, 4.097771990496395814E-16 ) ) ;
#148 = MANIFOLD_SOLID_BREP ( 'Revolve1', #207 ) ;
#149 = LINE ( 'NONE', #161, #199 ) ;
#150 = EDGE_CURVE ( 'NONE', #56, #170, #149, .T. ) ;
#151 = PRODUCT ( '400904', '400904', '', ( #24 ) ) ;
#152 = PRODUCT_DEFINITION ( 'UNKNOWN', '', #164, #122 ) ;
#153 = ORIENTED_EDGE ( 'NONE', *, *, #210, .T. ) ;
#154 = AXIS2_PLACEMENT_3D ( 'NONE', #176, #96, #144 ) ;
#155 = APPLICATION_CONTEXT ( 'configuration controlled 3d designs of mechanical parts and assemblies' ) ;
#156 = DATE_AND_TIME ( #73, #40 ) ;
#157 = EDGE_LOOP ( 'NONE', ( #54, #106, #109, #184 ) ) ;
#158 = DIRECTION ( 'NONE',  ( -0.000000000000000000, 1.000000000000000000, 4.097771990496395814E-16 ) ) ;
#159 = DIRECTION ( 'NONE',  ( 1.000000000000000000, 0.000000000000000000, 0.000000000000000000 ) ) ;
#160 = APPLICATION_PROTOCOL_DEFINITION ( 'international standard', 'config_control_design', 1994, #155 ) ;
#161 = CARTESIAN_POINT ( 'NONE',  ( 1.414213562373097810, -1.414213562373091815, -5.463695987328526437E-16 ) ) ;
#162 = PERSON_AND_ORGANIZATION_ROLE ( 'classification_officer' ) ;
#163 = CC_DESIGN_PERSON_AND_ORGANIZATION_ASSIGNMENT ( #94, #90, ( #151 ) ) ;
#164 = PRODUCT_DEFINITION_FORMATION_WITH_SPECIFIED_SOURCE ( 'ANY', '', #151, .NOT_KNOWN. ) ;
#165 = PLANE ( 'NONE',  #33 ) ;
#166 = SPHERICAL_SURFACE ( 'NONE', #172, 2.060000000000000053 ) ;
#167 = APPLICATION_CONTEXT ( 'configuration controlled 3d designs of mechanical parts and assemblies' ) ;
#168 = CC_DESIGN_PERSON_AND_ORGANIZATION_ASSIGNMENT ( #141, #128, ( #152 ) ) ;
#169 = ORIENTED_EDGE ( 'NONE', *, *, #175, .T. ) ;
#170 = VERTEX_POINT ( 'NONE', #68 ) ;
#171 = VERTEX_POINT ( 'NONE', #44 ) ;
#172 = AXIS2_PLACEMENT_3D ( 'NONE', #50, #205, #45 ) ;
#173 = DIRECTION ( 'NONE',  ( 0.7071067811865486830, -4.673100952266434431E-15, -0.7071067811865462405 ) ) ;
#174 = COORDINATED_UNIVERSAL_TIME_OFFSET ( 8, 0, .BEHIND. ) ;
#175 = EDGE_CURVE ( 'NONE', #171, #170, #22, .T. ) ;
#176 = CARTESIAN_POINT ( 'NONE',  ( 0.000000000000000000, -1.414213562373096256, -1.414213562373093369 ) ) ;
#177 = CARTESIAN_POINT ( 'NONE',  ( 0.000000000000000000, -1.414213562373096256, -1.414213562373093369 ) ) ;
#178 = ORIENTED_EDGE ( 'NONE', *, *, #70, .T. ) ;
#179 = COORDINATED_UNIVERSAL_TIME_OFFSET ( 8, 0, .BEHIND. ) ;
#180 =( GEOMETRIC_REPRESENTATION_CONTEXT ( 3 ) GLOBAL_UNCERTAINTY_ASSIGNED_CONTEXT ( ( #49 ) ) GLOBAL_UNIT_ASSIGNED_CONTEXT ( ( #37, #88, #196 ) ) REPRESENTATION_CONTEXT ( 'NONE', 'WORKASPACE' ) );
#181 = CARTESIAN_POINT ( 'NONE',  ( 1.456639969244290844, -1.414213562373091815, 0.04242640687119232645 ) ) ;
#182 =( LENGTH_UNIT ( ) NAMED_UNIT ( * ) SI_UNIT ( $, .METRE. ) );
#183 = DIRECTION ( 'NONE',  ( 0.7071067811865487940, 1.365923996832131609E-16, 0.7071067811865463515 ) ) ;
#184 = ORIENTED_EDGE ( 'NONE', *, *, #126, .F. ) ;
#185 = DATE_AND_TIME ( #187, #11 ) ;
#186 = DIRECTION ( 'NONE',  ( 0.000000000000000000, -4.097771990496393842E-16, 1.000000000000000000 ) ) ;
#187 = CALENDAR_DATE ( 2024, 21, 1 ) ;
#188 = AXIS2_PLACEMENT_3D ( 'NONE', #29, #212, #66 ) ;
#189 = CARTESIAN_POINT ( 'NONE',  ( 0.000000000000000000, -1.414213562373096256, -1.414213562373093369 ) ) ;
#190 = DATE_AND_TIME ( #132, #105 ) ;
#191 = FACE_OUTER_BOUND ( 'NONE', #38, .T. ) ;
#192 = DATE_AND_TIME ( #146, #138 ) ;
#193 = DIRECTION ( 'NONE',  ( -0.7071067811865463515, 2.897562362236303877E-16, -0.7071067811865487940 ) ) ;
#194 = ADVANCED_FACE ( 'NONE', ( #114 ), #134, .F. ) ;
#195 = EDGE_LOOP ( 'NONE', ( #9, #178, #169, #7 ) ) ;
#196 =( NAMED_UNIT ( * ) SI_UNIT ( $, .STERADIAN. ) SOLID_ANGLE_UNIT ( ) );
#197 = ORIENTED_EDGE ( 'NONE', *, *, #3, .F. ) ;
#198 = ADVANCED_FACE ( 'NONE', ( #112 ), #165, .T. ) ;
#199 = VECTOR ( 'NONE', #74, 39.37007874015748854 ) ;
#200 = EDGE_CURVE ( 'NONE', #41, #23, #35, .T. ) ;
#201 = COORDINATED_UNIVERSAL_TIME_OFFSET ( 8, 0, .BEHIND. ) ;
#202 = FACE_OUTER_BOUND ( 'NONE', #157, .T. ) ;
#203 = APPROVAL_ROLE ( '' ) ;
#204 = DIRECTION ( 'NONE',  ( -0.7071067811865487940, 1.365923996832131609E-16, 0.7071067811865463515 ) ) ;
#205 = DIRECTION ( 'NONE',  ( 0.7071067811865463515, -2.897562362236303384E-16, 0.7071067811865486830 ) ) ;
#206 = DATE_TIME_ROLE ( 'classification_date' ) ;
#207 = CLOSED_SHELL ( 'NONE', ( #194, #198, #119, #123, #32 ) ) ;
#208 = APPROVAL_PERSON_ORGANIZATION ( #75, #111, #203 ) ;
#209 = CALENDAR_DATE ( 2024, 21, 1 ) ;
#210 = EDGE_CURVE ( 'NONE', #170, #4, #145, .T. ) ;
#211 = APPROVAL_STATUS ( 'not_yet_approved' ) ;
#212 = DIRECTION ( 'NONE',  ( 0.7071067811865463515, 2.897562362236303384E-16, -0.7071067811865487940 ) ) ;
#213 = CARTESIAN_POINT ( 'NONE',  ( 0.000000000000000000, -1.414213562373096256, -1.414213562373093369 ) ) ;
ENDSEC;
END-ISO-10303-21;
