ISO-10303-21;
HEADER;
FILE_DESCRIPTION (( 'STEP AP203' ),
    '1' );
FILE_NAME ('400905.STEP',
    '2024-01-21T18:12:59',
    ( '' ),
    ( '' ),
    'SwSTEP 2.0',
    'SolidWorks 2021',
    '' );
FILE_SCHEMA (( 'CONFIG_CONTROL_DESIGN' ));
ENDSEC;

DATA;
#1 = ORIENTED_EDGE ( 'NONE', *, *, #199, .T. ) ;
#2 = APPLICATION_PROTOCOL_DEFINITION ( 'international standard', 'config_control_design', 1994, #62 ) ;
#3 = EDGE_LOOP ( 'NONE', ( #7, #102, #39 ) ) ;
#4 = PERSON_AND_ORGANIZATION ( #163, #153 ) ;
#5 = PERSON_AND_ORGANIZATION_ROLE ( 'design_owner' ) ;
#6 = LOCAL_TIME ( 10, 12, 59.00000000000000000, #103 ) ;
#7 = ORIENTED_EDGE ( 'NONE', *, *, #36, .F. ) ;
#8 = CARTESIAN_POINT ( 'NONE',  ( 0.000000000000000000, 0.000000000000000000, 0.000000000000000000 ) ) ;
#9 = VERTEX_POINT ( 'NONE', #139 ) ;
#10 = CC_DESIGN_PERSON_AND_ORGANIZATION_ASSIGNMENT ( #68, #133, ( #24 ) ) ;
#11 = ORIENTED_EDGE ( 'NONE', *, *, #63, .F. ) ;
#12 = CARTESIAN_POINT ( 'NONE',  ( 0.000000000000000000, -1.414213562373091371, -1.414213562373093369 ) ) ;
#13 = AXIS2_PLACEMENT_3D ( 'NONE', #194, #30, #46 ) ;
#14 = DIMENSIONAL_EXPONENTS ( 1.000000000000000000, 0.000000000000000000, 0.000000000000000000, 0.000000000000000000, 0.000000000000000000, 0.000000000000000000, 0.000000000000000000 ) ;
#15 = CC_DESIGN_PERSON_AND_ORGANIZATION_ASSIGNMENT ( #200, #5, ( #54 ) ) ;
#16 = CARTESIAN_POINT ( 'NONE',  ( 0.000000000000000000, -1.414213562373096256, -1.414213562373093369 ) ) ;
#17 = DIRECTION ( 'NONE',  ( -1.856586254321782698E-15, 1.000000000000000000, 2.266363453371415771E-15 ) ) ;
#18 = AXIS2_PLACEMENT_3D ( 'NONE', #122, #208, #43 ) ;
#19 = CARTESIAN_POINT ( 'NONE',  ( 1.414213562373097810, -1.414213562373091815, -5.463695987328526437E-16 ) ) ;
#20 = APPROVAL_PERSON_ORGANIZATION ( #52, #37, #40 ) ;
#21 = PERSON_AND_ORGANIZATION ( #163, #153 ) ;
#22 = ORIENTED_EDGE ( 'NONE', *, *, #199, .F. ) ;
#23 =( LENGTH_UNIT ( ) NAMED_UNIT ( * ) SI_UNIT ( $, .METRE. ) );
#24 = PRODUCT_DEFINITION_FORMATION_WITH_SPECIFIED_SOURCE ( 'ANY', '', #54, .NOT_KNOWN. ) ;
#25 = ORIENTED_EDGE ( 'NONE', *, *, #45, .T. ) ;
#26 = COORDINATED_UNIVERSAL_TIME_OFFSET ( 8, 0, .BEHIND. ) ;
#27 = DATE_AND_TIME ( #175, #31 ) ;
#28 = APPROVAL ( #29, 'UNSPECIFIED' ) ;
#29 = APPROVAL_STATUS ( 'not_yet_approved' ) ;
#30 = DIRECTION ( 'NONE',  ( 0.7071067811865463515, 2.897562362236303384E-16, -0.7071067811865487940 ) ) ;
#31 = LOCAL_TIME ( 10, 12, 59.00000000000000000, #33 ) ;
#32 = FACE_OUTER_BOUND ( 'NONE', #124, .T. ) ;
#33 = COORDINATED_UNIVERSAL_TIME_OFFSET ( 8, 0, .BEHIND. ) ;
#34 = DIRECTION ( 'NONE',  ( -0.000000000000000000, 1.000000000000000000, 4.097771990496395814E-16 ) ) ;
#35 = AXIS2_PLACEMENT_3D ( 'NONE', #159, #95, #112 ) ;
#36 = EDGE_CURVE ( 'NONE', #9, #202, #188, .T. ) ;
#37 = APPROVAL ( #41, 'UNSPECIFIED' ) ;
#38 = COORDINATED_UNIVERSAL_TIME_OFFSET ( 8, 0, .BEHIND. ) ;
#39 = ORIENTED_EDGE ( 'NONE', *, *, #180, .F. ) ;
#40 = APPROVAL_ROLE ( '' ) ;
#41 = APPROVAL_STATUS ( 'not_yet_approved' ) ;
#42 = DIRECTION ( 'NONE',  ( -0.7071067811865487940, 1.365923996832131609E-16, 0.7071067811865463515 ) ) ;
#43 = DIRECTION ( 'NONE',  ( -0.7071067811865486830, -2.614208606377285259E-16, 0.7071067811865462405 ) ) ;
#44 = VECTOR ( 'NONE', #17, 39.37007874015748143 ) ;
#45 = EDGE_CURVE ( 'NONE', #117, #9, #90, .T. ) ;
#46 = DIRECTION ( 'NONE',  ( 0.7071067811865487940, 1.307104303188642876E-16, 0.7071067811865463515 ) ) ;
#47 = FACE_OUTER_BOUND ( 'NONE', #120, .T. ) ;
#48 = AXIS2_PLACEMENT_3D ( 'NONE', #127, #49, #129 ) ;
#49 = DIRECTION ( 'NONE',  ( 0.7071067811865463515, -2.897562362236303877E-16, 0.7071067811865487940 ) ) ;
#50 = CIRCLE ( 'NONE', #13, 2.089999999999999858 ) ;
#51 = APPLICATION_CONTEXT ( 'configuration controlled 3d designs of mechanical parts and assemblies' ) ;
#52 = PERSON_AND_ORGANIZATION ( #163, #153 ) ;
#53 = EDGE_CURVE ( 'NONE', #148, #84, #126, .T. ) ;
#54 = PRODUCT ( '400905', '400905', '', ( #164 ) ) ;
#55 = ORIENTED_EDGE ( 'NONE', *, *, #100, .F. ) ;
#56 = CC_DESIGN_APPROVAL ( #28, ( #125 ) ) ;
#57 = DATE_AND_TIME ( #136, #83 ) ;
#58 = DATE_AND_TIME ( #97, #6 ) ;
#59 = SHAPE_DEFINITION_REPRESENTATION ( #168, #207 ) ;
#60 = AXIS2_PLACEMENT_3D ( 'NONE', #80, #143, #212 ) ;
#61 = DIRECTION ( 'NONE',  ( -0.7071067811865486830, -6.190794282079936480E-15, -0.7071067811865462405 ) ) ;
#62 = APPLICATION_CONTEXT ( 'configuration controlled 3d designs of mechanical parts and assemblies' ) ;
#63 = EDGE_CURVE ( 'NONE', #84, #189, #50, .T. ) ;
#64 = CARTESIAN_POINT ( 'NONE',  ( 0.000000000000000000, -1.414213562373096256, -1.414213562373093369 ) ) ;
#65 = DIRECTION ( 'NONE',  ( -0.7071067811865463515, -2.897562362236303384E-16, 0.7071067811865487940 ) ) ;
#66 = APPROVAL_PERSON_ORGANIZATION ( #166, #71, #85 ) ;
#67 =( NAMED_UNIT ( * ) PLANE_ANGLE_UNIT ( ) SI_UNIT ( $, .RADIAN. ) );
#68 = PERSON_AND_ORGANIZATION ( #163, #153 ) ;
#69 = ORIENTED_EDGE ( 'NONE', *, *, #53, .T. ) ;
#70 = PERSON_AND_ORGANIZATION_ROLE ( 'classification_officer' ) ;
#71 = APPROVAL ( #184, 'UNSPECIFIED' ) ;
#72 = EDGE_LOOP ( 'NONE', ( #144, #25, #171, #201 ) ) ;
#73 = APPLICATION_PROTOCOL_DEFINITION ( 'international standard', 'config_control_design', 1994, #51 ) ;
#74 = CARTESIAN_POINT ( 'NONE',  ( 0.000000000000000000, -1.414213562373090705, -1.414213562373093369 ) ) ;
#75 = CARTESIAN_POINT ( 'NONE',  ( -1.414213562373097810, -1.414213562373091815, -5.463695987328526437E-16 ) ) ;
#76 = LINE ( 'NONE', #178, #131 ) ;
#77 = DIRECTION ( 'NONE',  ( -0.7071067811865463515, -2.897562362236303877E-16, 0.7071067811865487940 ) ) ;
#78 = CLOSED_SHELL ( 'NONE', ( #211, #190, #142, #167, #156 ) ) ;
#79 = PLANE ( 'NONE',  #35 ) ;
#80 = CARTESIAN_POINT ( 'NONE',  ( 0.000000000000000000, -1.414213562373096256, -1.414213562373093369 ) ) ;
#81 = CC_DESIGN_PERSON_AND_ORGANIZATION_ASSIGNMENT ( #21, #145, ( #24 ) ) ;
#82 = LENGTH_MEASURE_WITH_UNIT ( LENGTH_MEASURE( 0.02539999999999999897 ), #23 );
#83 = LOCAL_TIME ( 10, 12, 59.00000000000000000, #104 ) ;
#84 = VERTEX_POINT ( 'NONE', #88 ) ;
#85 = APPROVAL_ROLE ( '' ) ;
#86 = ORIENTED_EDGE ( 'NONE', *, *, #63, .T. ) ;
#87 = APPROVAL_PERSON_ORGANIZATION ( #174, #28, #123 ) ;
#88 = CARTESIAN_POINT ( 'NONE',  ( -2.731847993664263218E-16, 0.6757864376269036022, -1.414213562373092481 ) ) ;
#89 = CC_DESIGN_PERSON_AND_ORGANIZATION_ASSIGNMENT ( #101, #203, ( #150 ) ) ;
#90 = LINE ( 'NONE', #75, #196 ) ;
#91 = DIRECTION ( 'NONE',  ( 0.000000000000000000, -3.921312909565927395E-16, 1.000000000000000000 ) ) ;
#92 = EDGE_CURVE ( 'NONE', #189, #202, #76, .T. ) ;
#93 = PLANE ( 'NONE',  #170 ) ;
#94 = MANIFOLD_SOLID_BREP ( 'Revolve1', #78 ) ;
#95 = DIRECTION ( 'NONE',  ( 0.000000000000000000, -1.000000000000000000, -4.097771990496395814E-16 ) ) ;
#96 = UNCERTAINTY_MEASURE_WITH_UNIT (LENGTH_MEASURE( 1.000000000000000082E-05 ), #135, 'distance_accuracy_value', 'NONE');
#97 = CALENDAR_DATE ( 2024, 21, 1 ) ;
#98 = DATE_AND_TIME ( #160, #210 ) ;
#99 = LOCAL_TIME ( 10, 12, 59.00000000000000000, #26 ) ;
#100 = EDGE_CURVE ( 'NONE', #9, #148, #151, .T. ) ;
#101 = PERSON_AND_ORGANIZATION ( #163, #153 ) ;
#102 = ORIENTED_EDGE ( 'NONE', *, *, #100, .T. ) ;
#103 = COORDINATED_UNIVERSAL_TIME_OFFSET ( 8, 0, .BEHIND. ) ;
#104 = COORDINATED_UNIVERSAL_TIME_OFFSET ( 8, 0, .BEHIND. ) ;
#105 = ORIENTED_EDGE ( 'NONE', *, *, #45, .F. ) ;
#106 = CIRCLE ( 'NONE', #213, 2.090000000000000302 ) ;
#107 = DIRECTION ( 'NONE',  ( -0.000000000000000000, 1.000000000000000000, 4.097771990496395814E-16 ) ) ;
#108 = CC_DESIGN_SECURITY_CLASSIFICATION ( #125, ( #24 ) ) ;
#109 = CARTESIAN_POINT ( 'NONE',  ( 0.000000000000000000, 0.5857864376269035223, -1.414213562373092703 ) ) ;
#110 = AXIS2_PLACEMENT_3D ( 'NONE', #8, #169, #187 ) ;
#111 = FACE_OUTER_BOUND ( 'NONE', #72, .T. ) ;
#112 = DIRECTION ( 'NONE',  ( 0.000000000000000000, 4.097771990496395814E-16, -1.000000000000000000 ) ) ;
#113 = APPROVAL_DATE_TIME ( #57, #37 ) ;
#114 = PRODUCT_RELATED_PRODUCT_CATEGORY ( 'detail', '', ( #54 ) ) ;
#115 = DATE_TIME_ROLE ( 'creation_date' ) ;
#116 = CC_DESIGN_APPROVAL ( #71, ( #24 ) ) ;
#117 = VERTEX_POINT ( 'NONE', #152 ) ;
#118 = CALENDAR_DATE ( 2024, 21, 1 ) ;
#119 = EDGE_CURVE ( 'NONE', #117, #189, #106, .T. ) ;
#120 = EDGE_LOOP ( 'NONE', ( #55, #105, #22, #149 ) ) ;
#121 = CIRCLE ( 'NONE', #193, 2.000000000000000000 ) ;
#122 = CARTESIAN_POINT ( 'NONE',  ( 0.000000000000000000, -1.414213562373096256, -1.414213562373093369 ) ) ;
#123 = APPROVAL_ROLE ( '' ) ;
#124 = EDGE_LOOP ( 'NONE', ( #191, #69, #86, #146 ) ) ;
#125 = SECURITY_CLASSIFICATION ( '', '', #147 ) ;
#126 = LINE ( 'NONE', #176, #44 ) ;
#127 = CARTESIAN_POINT ( 'NONE',  ( 0.000000000000000000, -1.414213562373096256, -1.414213562373093369 ) ) ;
#128 = DIRECTION ( 'NONE',  ( 0.7071067811865486830, 1.200209628260102044E-16, 0.7071067811865462405 ) ) ;
#129 = DIRECTION ( 'NONE',  ( -0.7071067811865487940, 1.307104303188642876E-16, 0.7071067811865463515 ) ) ;
#130 = DIRECTION ( 'NONE',  ( 0.7071067811865487940, 1.365923996832131609E-16, 0.7071067811865463515 ) ) ;
#131 = VECTOR ( 'NONE', #61, 39.37007874015748854 ) ;
#132 =( NAMED_UNIT ( * ) SI_UNIT ( $, .STERADIAN. ) SOLID_ANGLE_UNIT ( ) );
#133 = PERSON_AND_ORGANIZATION_ROLE ( 'design_supplier' ) ;
#134 = CIRCLE ( 'NONE', #48, 2.089999999999999858 ) ;
#135 =( CONVERSION_BASED_UNIT ( 'INCH', #82 ) LENGTH_UNIT ( ) NAMED_UNIT ( #14 ) );
#136 = CALENDAR_DATE ( 2024, 21, 1 ) ;
#137 = FACE_OUTER_BOUND ( 'NONE', #165, .T. ) ;
#138 = CC_DESIGN_APPROVAL ( #37, ( #150 ) ) ;
#139 = CARTESIAN_POINT ( 'NONE',  ( -1.414213562373097810, -1.414213562373091815, -5.463695987328526437E-16 ) ) ;
#140 = SPHERICAL_SURFACE ( 'NONE', #18, 2.089999999999999858 ) ;
#141 = SPHERICAL_SURFACE ( 'NONE', #182, 2.000000000000000000 ) ;
#142 = ADVANCED_FACE ( 'NONE', ( #137 ), #140, .T. ) ;
#143 = DIRECTION ( 'NONE',  ( -0.7071067811865463515, 2.897562362236303877E-16, -0.7071067811865487940 ) ) ;
#144 = ORIENTED_EDGE ( 'NONE', *, *, #119, .F. ) ;
#145 = PERSON_AND_ORGANIZATION_ROLE ( 'creator' ) ;
#146 = ORIENTED_EDGE ( 'NONE', *, *, #92, .T. ) ;
#147 = SECURITY_CLASSIFICATION_LEVEL ( 'unclassified' ) ;
#148 = VERTEX_POINT ( 'NONE', #109 ) ;
#149 = ORIENTED_EDGE ( 'NONE', *, *, #53, .F. ) ;
#150 = PRODUCT_DEFINITION ( 'UNKNOWN', '', #24, #183 ) ;
#151 = CIRCLE ( 'NONE', #198, 2.000000000000000000 ) ;
#152 = CARTESIAN_POINT ( 'NONE',  ( -1.477853172679887139, -1.414213562373091371, 0.06363961030678827457 ) ) ;
#153 = ORGANIZATION ( 'UNSPECIFIED', 'UNSPECIFIED', '' ) ;
#154 = DATE_AND_TIME ( #118, #99 ) ;
#155 = APPROVAL_DATE_TIME ( #27, #28 ) ;
#156 = ADVANCED_FACE ( 'NONE', ( #32 ), #93, .F. ) ;
#157 = CC_DESIGN_DATE_AND_TIME_ASSIGNMENT ( #58, #115, ( #150 ) ) ;
#158 = PLANE ( 'NONE',  #60 ) ;
#159 = CARTESIAN_POINT ( 'NONE',  ( -1.414213562373097810, -1.414213562373091593, -5.463695987328525451E-16 ) ) ;
#160 = CALENDAR_DATE ( 2024, 21, 1 ) ;
#161 = APPROVAL_DATE_TIME ( #98, #71 ) ;
#162 = ORIENTED_EDGE ( 'NONE', *, *, #119, .T. ) ;
#163 = PERSON ( 'UNSPECIFIED', 'UNSPECIFIED', 'UNSPECIFIED', ('UNSPECIFIED'), ('UNSPECIFIED'), ('UNSPECIFIED') ) ;
#164 = MECHANICAL_CONTEXT ( 'NONE', #51, 'mechanical' ) ;
#165 = EDGE_LOOP ( 'NONE', ( #11, #1, #162 ) ) ;
#166 = PERSON_AND_ORGANIZATION ( #163, #153 ) ;
#167 = ADVANCED_FACE ( 'NONE', ( #47 ), #158, .T. ) ;
#168 = PRODUCT_DEFINITION_SHAPE ( 'NONE', 'NONE',  #150 ) ;
#169 = DIRECTION ( 'NONE',  ( 0.000000000000000000, 0.000000000000000000, 1.000000000000000000 ) ) ;
#170 = AXIS2_PLACEMENT_3D ( 'NONE', #16, #77, #128 ) ;
#171 = ORIENTED_EDGE ( 'NONE', *, *, #36, .T. ) ;
#172 = DATE_TIME_ROLE ( 'classification_date' ) ;
#173 = DIRECTION ( 'NONE',  ( -0.7071067811865463515, 2.897562362236303877E-16, -0.7071067811865487940 ) ) ;
#174 = PERSON_AND_ORGANIZATION ( #163, #153 ) ;
#175 = CALENDAR_DATE ( 2024, 21, 1 ) ;
#176 = CARTESIAN_POINT ( 'NONE',  ( 0.000000000000000000, 0.5857864376269035223, -1.414213562373092703 ) ) ;
#177 = DIRECTION ( 'NONE',  ( 0.7071067811865486830, -6.190794282079936480E-15, -0.7071067811865462405 ) ) ;
#178 = CARTESIAN_POINT ( 'NONE',  ( 1.414213562373097810, -1.414213562373091815, -5.463695987328526437E-16 ) ) ;
#179 =( GEOMETRIC_REPRESENTATION_CONTEXT ( 3 ) GLOBAL_UNCERTAINTY_ASSIGNED_CONTEXT ( ( #96 ) ) GLOBAL_UNIT_ASSIGNED_CONTEXT ( ( #135, #67, #132 ) ) REPRESENTATION_CONTEXT ( 'NONE', 'WORKASPACE' ) );
#180 = EDGE_CURVE ( 'NONE', #202, #148, #121, .T. ) ;
#181 = DIRECTION ( 'NONE',  ( 0.7071067811865462405, -2.897562362236303877E-16, 0.7071067811865487940 ) ) ;
#182 = AXIS2_PLACEMENT_3D ( 'NONE', #197, #181, #186 ) ;
#183 = DESIGN_CONTEXT ( 'detailed design', #62, 'design' ) ;
#184 = APPROVAL_STATUS ( 'not_yet_approved' ) ;
#185 = CC_DESIGN_DATE_AND_TIME_ASSIGNMENT ( #154, #172, ( #125 ) ) ;
#186 = DIRECTION ( 'NONE',  ( -0.7071067811865486830, -2.731847993664262725E-16, 0.7071067811865462405 ) ) ;
#187 = DIRECTION ( 'NONE',  ( 1.000000000000000000, 0.000000000000000000, 0.000000000000000000 ) ) ;
#188 = CIRCLE ( 'NONE', #192, 2.000000000000000444 ) ;
#189 = VERTEX_POINT ( 'NONE', #209 ) ;
#190 = ADVANCED_FACE ( 'NONE', ( #111 ), #79, .T. ) ;
#191 = ORIENTED_EDGE ( 'NONE', *, *, #180, .T. ) ;
#192 = AXIS2_PLACEMENT_3D ( 'NONE', #12, #34, #205 ) ;
#193 = AXIS2_PLACEMENT_3D ( 'NONE', #64, #65, #130 ) ;
#194 = CARTESIAN_POINT ( 'NONE',  ( 0.000000000000000000, -1.414213562373096256, -1.414213562373093369 ) ) ;
#195 = FACE_OUTER_BOUND ( 'NONE', #3, .T. ) ;
#196 = VECTOR ( 'NONE', #177, 39.37007874015748854 ) ;
#197 = CARTESIAN_POINT ( 'NONE',  ( 0.000000000000000000, -1.414213562373096256, -1.414213562373093369 ) ) ;
#198 = AXIS2_PLACEMENT_3D ( 'NONE', #206, #173, #42 ) ;
#199 = EDGE_CURVE ( 'NONE', #84, #117, #134, .T. ) ;
#200 = PERSON_AND_ORGANIZATION ( #163, #153 ) ;
#201 = ORIENTED_EDGE ( 'NONE', *, *, #92, .F. ) ;
#202 = VERTEX_POINT ( 'NONE', #19 ) ;
#203 = PERSON_AND_ORGANIZATION_ROLE ( 'creator' ) ;
#204 = CC_DESIGN_PERSON_AND_ORGANIZATION_ASSIGNMENT ( #4, #70, ( #125 ) ) ;
#205 = DIRECTION ( 'NONE',  ( 0.000000000000000000, -4.097771990496393842E-16, 1.000000000000000000 ) ) ;
#206 = CARTESIAN_POINT ( 'NONE',  ( 0.000000000000000000, -1.414213562373096256, -1.414213562373093369 ) ) ;
#207 = ADVANCED_BREP_SHAPE_REPRESENTATION ( '400905', ( #94, #110 ), #179 ) ;
#208 = DIRECTION ( 'NONE',  ( 0.7071067811865463515, -2.897562362236303877E-16, 0.7071067811865487940 ) ) ;
#209 = CARTESIAN_POINT ( 'NONE',  ( 1.477853172679886917, -1.414213562373091371, 0.06363961030678848274 ) ) ;
#210 = LOCAL_TIME ( 10, 12, 59.00000000000000000, #38 ) ;
#211 = ADVANCED_FACE ( 'NONE', ( #195 ), #141, .F. ) ;
#212 = DIRECTION ( 'NONE',  ( -0.7071067811865486830, 1.200209628260102537E-16, 0.7071067811865462405 ) ) ;
#213 = AXIS2_PLACEMENT_3D ( 'NONE', #74, #107, #91 ) ;
ENDSEC;
END-ISO-10303-21;
