ISO-10303-21;
HEADER;
FILE_DESCRIPTION (( 'STEP AP203' ),
    '1' );
FILE_NAME ('450503.STEP',
    '2024-01-21T18:06:21',
    ( '' ),
    ( '' ),
    'SwSTEP 2.0',
    'SolidWorks 2021',
    '' );
FILE_SCHEMA (( 'CONFIG_CONTROL_DESIGN' ));
ENDSEC;

DATA;
#1 = PRODUCT_DEFINITION_SHAPE ( 'NONE', 'NONE',  #19 ) ;
#2 = DIRECTION ( 'NONE',  ( 0.7071067811865462405, -2.897562362236302891E-16, 0.7071067811865487940 ) ) ;
#3 = ORIENTED_EDGE ( 'NONE', *, *, #72, .F. ) ;
#4 = DIRECTION ( 'NONE',  ( 0.7071067811865463515, -2.897562362236303877E-16, 0.7071067811865487940 ) ) ;
#5 = DIMENSIONAL_EXPONENTS ( 1.000000000000000000, 0.000000000000000000, 0.000000000000000000, 0.000000000000000000, 0.000000000000000000, 0.000000000000000000, 0.000000000000000000 ) ;
#6 = ORIENTED_EDGE ( 'NONE', *, *, #102, .T. ) ;
#7 = DIRECTION ( 'NONE',  ( -3.820261298863317739E-15, 1.000000000000000000, 4.230038497912942924E-15 ) ) ;
#8 = CIRCLE ( 'NONE', #15, 2.047000000000000153 ) ;
#9 = ORIENTED_EDGE ( 'NONE', *, *, #55, .F. ) ;
#10 = DIRECTION ( 'NONE',  ( 0.7071067811865462405, -2.897562362236303877E-16, 0.7071067811865487940 ) ) ;
#11 = CC_DESIGN_PERSON_AND_ORGANIZATION_ASSIGNMENT ( #158, #80, ( #45 ) ) ;
#12 = CARTESIAN_POINT ( 'NONE',  ( -1.447447581088865842, -1.414213562373091815, 0.03323401871576710936 ) ) ;
#13 = PERSON_AND_ORGANIZATION ( #65, #27 ) ;
#14 = APPROVAL ( #100, 'UNSPECIFIED' ) ;
#15 = AXIS2_PLACEMENT_3D ( 'NONE', #101, #175, #35 ) ;
#16 = CARTESIAN_POINT ( 'NONE',  ( -1.414213562373097810, -1.414213562373091815, -5.463695987328526437E-16 ) ) ;
#17 = VERTEX_POINT ( 'NONE', #126 ) ;
#18 = DIRECTION ( 'NONE',  ( -0.7071067811865463515, -2.897562362236303877E-16, 0.7071067811865487940 ) ) ;
#19 = PRODUCT_DEFINITION ( 'UNKNOWN', '', #45, #170 ) ;
#20 = FACE_OUTER_BOUND ( 'NONE', #154, .T. ) ;
#21 = DIRECTION ( 'NONE',  ( -0.7071067811865487940, -2.669123589315351877E-16, 0.7071067811865462405 ) ) ;
#22 = VERTEX_POINT ( 'NONE', #12 ) ;
#23 = VERTEX_POINT ( 'NONE', #192 ) ;
#24 = DATE_AND_TIME ( #210, #37 ) ;
#25 = PERSON_AND_ORGANIZATION ( #65, #27 ) ;
#26 = CALENDAR_DATE ( 2024, 21, 1 ) ;
#27 = ORGANIZATION ( 'UNSPECIFIED', 'UNSPECIFIED', '' ) ;
#28 = DIRECTION ( 'NONE',  ( -0.000000000000000000, 1.000000000000000000, 4.097771990496395814E-16 ) ) ;
#29 = ADVANCED_FACE ( 'NONE', ( #91 ), #143, .T. ) ;
#30 = AXIS2_PLACEMENT_3D ( 'NONE', #38, #107, #85 ) ;
#31 = MANIFOLD_SOLID_BREP ( 'Revolve1', #146 ) ;
#32 = ADVANCED_BREP_SHAPE_REPRESENTATION ( '450503', ( #31, #90 ), #79 ) ;
#33 = UNCERTAINTY_MEASURE_WITH_UNIT (LENGTH_MEASURE( 1.000000000000000082E-05 ), #138, 'distance_accuracy_value', 'NONE');
#34 = PERSON_AND_ORGANIZATION ( #65, #27 ) ;
#35 = DIRECTION ( 'NONE',  ( 0.7071067811865487940, 1.334561794657676185E-16, 0.7071067811865462405 ) ) ;
#36 = CARTESIAN_POINT ( 'NONE',  ( 0.000000000000000000, -1.414213562373096256, -1.414213562373093369 ) ) ;
#37 = LOCAL_TIME ( 10, 6, 21.00000000000000000, #144 ) ;
#38 = CARTESIAN_POINT ( 'NONE',  ( 0.000000000000000000, -1.414213562373096256, -1.414213562373093369 ) ) ;
#39 = CARTESIAN_POINT ( 'NONE',  ( -2.731847993664263218E-16, 0.6327864376269038971, -1.414213562373092481 ) ) ;
#40 = CARTESIAN_POINT ( 'NONE',  ( 1.414213562373097810, -1.414213562373091815, -5.463695987328526437E-16 ) ) ;
#41 = EDGE_CURVE ( 'NONE', #161, #48, #209, .T. ) ;
#42 = PRODUCT ( '450503', '450503', '', ( #148 ) ) ;
#43 = CARTESIAN_POINT ( 'NONE',  ( 0.000000000000000000, -1.414213562373096256, -1.414213562373093369 ) ) ;
#44 = DIRECTION ( 'NONE',  ( -0.7071067811865487940, 1.334561794657676185E-16, 0.7071067811865462405 ) ) ;
#45 = PRODUCT_DEFINITION_FORMATION_WITH_SPECIFIED_SOURCE ( 'ANY', '', #42, .NOT_KNOWN. ) ;
#46 = COORDINATED_UNIVERSAL_TIME_OFFSET ( 8, 0, .BEHIND. ) ;
#47 = SECURITY_CLASSIFICATION_LEVEL ( 'unclassified' ) ;
#48 = VERTEX_POINT ( 'NONE', #51 ) ;
#49 = DIRECTION ( 'NONE',  ( 0.000000000000000000, 0.000000000000000000, 1.000000000000000000 ) ) ;
#50 = AXIS2_PLACEMENT_3D ( 'NONE', #86, #2, #21 ) ;
#51 = CARTESIAN_POINT ( 'NONE',  ( 0.000000000000000000, 0.5857864376269035223, -1.414213562373092703 ) ) ;
#52 = PERSON_AND_ORGANIZATION ( #65, #27 ) ;
#53 = CC_DESIGN_PERSON_AND_ORGANIZATION_ASSIGNMENT ( #145, #67, ( #42 ) ) ;
#54 = APPROVAL_PERSON_ORGANIZATION ( #13, #122, #81 ) ;
#55 = EDGE_CURVE ( 'NONE', #23, #161, #103, .T. ) ;
#56 = APPROVAL_PERSON_ORGANIZATION ( #34, #14, #185 ) ;
#57 = DATE_TIME_ROLE ( 'classification_date' ) ;
#58 = DIRECTION ( 'NONE',  ( -0.000000000000000000, 1.000000000000000000, 4.097771990496395814E-16 ) ) ;
#59 = FACE_OUTER_BOUND ( 'NONE', #190, .T. ) ;
#60 = VECTOR ( 'NONE', #7, 39.37007874015748143 ) ;
#61 = DIRECTION ( 'NONE',  ( 0.000000000000000000, 4.097771990496395814E-16, -1.000000000000000000 ) ) ;
#62 =( LENGTH_UNIT ( ) NAMED_UNIT ( * ) SI_UNIT ( $, .METRE. ) );
#63 = ORIENTED_EDGE ( 'NONE', *, *, #184, .F. ) ;
#64 = APPLICATION_CONTEXT ( 'configuration controlled 3d designs of mechanical parts and assemblies' ) ;
#65 = PERSON ( 'UNSPECIFIED', 'UNSPECIFIED', 'UNSPECIFIED', ('UNSPECIFIED'), ('UNSPECIFIED'), ('UNSPECIFIED') ) ;
#66 = PERSON_AND_ORGANIZATION ( #65, #27 ) ;
#67 = PERSON_AND_ORGANIZATION_ROLE ( 'design_owner' ) ;
#68 = ORIENTED_EDGE ( 'NONE', *, *, #128, .F. ) ;
#69 = CALENDAR_DATE ( 2024, 21, 1 ) ;
#70 = ORIENTED_EDGE ( 'NONE', *, *, #184, .T. ) ;
#71 = CARTESIAN_POINT ( 'NONE',  ( 0.000000000000000000, 0.000000000000000000, 0.000000000000000000 ) ) ;
#72 = EDGE_CURVE ( 'NONE', #23, #48, #188, .T. ) ;
#73 = ORIENTED_EDGE ( 'NONE', *, *, #72, .T. ) ;
#74 = ORIENTED_EDGE ( 'NONE', *, *, #55, .T. ) ;
#75 = DIRECTION ( 'NONE',  ( 0.7071067811865486830, 1.200209628260102044E-16, 0.7071067811865462405 ) ) ;
#76 = AXIS2_PLACEMENT_3D ( 'NONE', #36, #4, #44 ) ;
#77 = APPROVAL_STATUS ( 'not_yet_approved' ) ;
#78 = ADVANCED_FACE ( 'NONE', ( #20 ), #87, .T. ) ;
#79 =( GEOMETRIC_REPRESENTATION_CONTEXT ( 3 ) GLOBAL_UNCERTAINTY_ASSIGNED_CONTEXT ( ( #33 ) ) GLOBAL_UNIT_ASSIGNED_CONTEXT ( ( #138, #105, #89 ) ) REPRESENTATION_CONTEXT ( 'NONE', 'WORKASPACE' ) );
#80 = PERSON_AND_ORGANIZATION_ROLE ( 'design_supplier' ) ;
#81 = APPROVAL_ROLE ( '' ) ;
#82 = CC_DESIGN_PERSON_AND_ORGANIZATION_ASSIGNMENT ( #196, #113, ( #167 ) ) ;
#83 = AXIS2_PLACEMENT_3D ( 'NONE', #43, #157, #207 ) ;
#84 = SHAPE_DEFINITION_REPRESENTATION ( #1, #32 ) ;
#85 = DIRECTION ( 'NONE',  ( 0.7071067811865487940, 1.365923996832131609E-16, 0.7071067811865463515 ) ) ;
#86 = CARTESIAN_POINT ( 'NONE',  ( 0.000000000000000000, -1.414213562373096256, -1.414213562373093369 ) ) ;
#87 = PLANE ( 'NONE',  #171 ) ;
#88 = ORIENTED_EDGE ( 'NONE', *, *, #201, .F. ) ;
#89 =( NAMED_UNIT ( * ) SI_UNIT ( $, .STERADIAN. ) SOLID_ANGLE_UNIT ( ) );
#90 = AXIS2_PLACEMENT_3D ( 'NONE', #71, #49, #93 ) ;
#91 = FACE_OUTER_BOUND ( 'NONE', #206, .T. ) ;
#92 = EDGE_CURVE ( 'NONE', #17, #161, #125, .T. ) ;
#93 = DIRECTION ( 'NONE',  ( 1.000000000000000000, 0.000000000000000000, 0.000000000000000000 ) ) ;
#94 = PERSON_AND_ORGANIZATION_ROLE ( 'creator' ) ;
#95 = VECTOR ( 'NONE', #97, 39.37007874015748854 ) ;
#96 = DATE_AND_TIME ( #26, #106 ) ;
#97 = DIRECTION ( 'NONE',  ( -0.7071067811865486830, -5.932463502537198661E-15, -0.7071067811865462405 ) ) ;
#98 = ORIENTED_EDGE ( 'NONE', *, *, #159, .T. ) ;
#99 = APPLICATION_PROTOCOL_DEFINITION ( 'international standard', 'config_control_design', 1994, #130 ) ;
#100 = APPROVAL_STATUS ( 'not_yet_approved' ) ;
#101 = CARTESIAN_POINT ( 'NONE',  ( 0.000000000000000000, -1.414213562373096256, -1.414213562373093369 ) ) ;
#102 = EDGE_CURVE ( 'NONE', #114, #17, #8, .T. ) ;
#103 = CIRCLE ( 'NONE', #115, 2.000000000000000444 ) ;
#104 = CARTESIAN_POINT ( 'NONE',  ( 1.414213562373097810, -1.414213562373091815, -5.463695987328526437E-16 ) ) ;
#105 =( NAMED_UNIT ( * ) PLANE_ANGLE_UNIT ( ) SI_UNIT ( $, .RADIAN. ) );
#106 = LOCAL_TIME ( 10, 6, 21.00000000000000000, #181 ) ;
#107 = DIRECTION ( 'NONE',  ( -0.7071067811865463515, -2.897562362236303384E-16, 0.7071067811865487940 ) ) ;
#108 = FACE_OUTER_BOUND ( 'NONE', #176, .T. ) ;
#109 = ORIENTED_EDGE ( 'NONE', *, *, #159, .F. ) ;
#110 = ORIENTED_EDGE ( 'NONE', *, *, #92, .T. ) ;
#111 = SPHERICAL_SURFACE ( 'NONE', #129, 2.000000000000000000 ) ;
#112 = LOCAL_TIME ( 10, 6, 21.00000000000000000, #46 ) ;
#113 = PERSON_AND_ORGANIZATION_ROLE ( 'classification_officer' ) ;
#114 = VERTEX_POINT ( 'NONE', #39 ) ;
#115 = AXIS2_PLACEMENT_3D ( 'NONE', #211, #28, #173 ) ;
#116 = DATE_AND_TIME ( #69, #141 ) ;
#117 = DIRECTION ( 'NONE',  ( -0.7071067811865463515, 2.897562362236303877E-16, -0.7071067811865487940 ) ) ;
#118 = APPROVAL ( #77, 'UNSPECIFIED' ) ;
#119 = AXIS2_PLACEMENT_3D ( 'NONE', #123, #18, #75 ) ;
#120 = APPROVAL_DATE_TIME ( #151, #14 ) ;
#121 = LENGTH_MEASURE_WITH_UNIT ( LENGTH_MEASURE( 0.02539999999999999897 ), #62 );
#122 = APPROVAL ( #147, 'UNSPECIFIED' ) ;
#123 = CARTESIAN_POINT ( 'NONE',  ( 0.000000000000000000, -1.414213562373096256, -1.414213562373093369 ) ) ;
#124 = AXIS2_PLACEMENT_3D ( 'NONE', #133, #117, #140 ) ;
#125 = LINE ( 'NONE', #40, #95 ) ;
#126 = CARTESIAN_POINT ( 'NONE',  ( 1.447447581088865398, -1.414213562373091815, 0.03323401871576717875 ) ) ;
#127 = DIRECTION ( 'NONE',  ( 0.000000000000000000, -4.003685383973027569E-16, 1.000000000000000000 ) ) ;
#128 = EDGE_CURVE ( 'NONE', #22, #17, #182, .T. ) ;
#129 = AXIS2_PLACEMENT_3D ( 'NONE', #202, #10, #187 ) ;
#130 = APPLICATION_CONTEXT ( 'configuration controlled 3d designs of mechanical parts and assemblies' ) ;
#131 = DATE_TIME_ROLE ( 'creation_date' ) ;
#132 = ORIENTED_EDGE ( 'NONE', *, *, #41, .T. ) ;
#133 = CARTESIAN_POINT ( 'NONE',  ( 0.000000000000000000, -1.414213562373096256, -1.414213562373093369 ) ) ;
#134 = VECTOR ( 'NONE', #172, 39.37007874015748854 ) ;
#135 = CC_DESIGN_PERSON_AND_ORGANIZATION_ASSIGNMENT ( #25, #94, ( #45 ) ) ;
#136 = CC_DESIGN_SECURITY_CLASSIFICATION ( #167, ( #45 ) ) ;
#137 = LINE ( 'NONE', #174, #60 ) ;
#138 =( CONVERSION_BASED_UNIT ( 'INCH', #121 ) LENGTH_UNIT ( ) NAMED_UNIT ( #5 ) );
#139 = ORIENTED_EDGE ( 'NONE', *, *, #102, .F. ) ;
#140 = DIRECTION ( 'NONE',  ( -0.7071067811865487940, 1.365923996832131609E-16, 0.7071067811865463515 ) ) ;
#141 = LOCAL_TIME ( 10, 6, 21.00000000000000000, #195 ) ;
#142 = ADVANCED_FACE ( 'NONE', ( #108 ), #111, .F. ) ;
#143 = PLANE ( 'NONE',  #83 ) ;
#144 = COORDINATED_UNIVERSAL_TIME_OFFSET ( 8, 0, .BEHIND. ) ;
#145 = PERSON_AND_ORGANIZATION ( #65, #27 ) ;
#146 = CLOSED_SHELL ( 'NONE', ( #142, #78, #208, #29, #153 ) ) ;
#147 = APPROVAL_STATUS ( 'not_yet_approved' ) ;
#148 = MECHANICAL_CONTEXT ( 'NONE', #130, 'mechanical' ) ;
#149 = ORIENTED_EDGE ( 'NONE', *, *, #128, .T. ) ;
#150 = CC_DESIGN_APPROVAL ( #118, ( #19 ) ) ;
#151 = DATE_AND_TIME ( #166, #164 ) ;
#152 = SPHERICAL_SURFACE ( 'NONE', #50, 2.047000000000000153 ) ;
#153 = ADVANCED_FACE ( 'NONE', ( #59 ), #193, .F. ) ;
#154 = EDGE_LOOP ( 'NONE', ( #68, #197, #74, #198 ) ) ;
#155 = CARTESIAN_POINT ( 'NONE',  ( 0.000000000000000000, -1.414213562373091371, -1.414213562373093369 ) ) ;
#156 = CARTESIAN_POINT ( 'NONE',  ( -1.414213562373097810, -1.414213562373091815, -5.463695987328526437E-16 ) ) ;
#157 = DIRECTION ( 'NONE',  ( -0.7071067811865463515, 2.897562362236303877E-16, -0.7071067811865487940 ) ) ;
#158 = PERSON_AND_ORGANIZATION ( #65, #27 ) ;
#159 = EDGE_CURVE ( 'NONE', #114, #22, #200, .T. ) ;
#160 = PERSON_AND_ORGANIZATION_ROLE ( 'creator' ) ;
#161 = VERTEX_POINT ( 'NONE', #104 ) ;
#162 = APPROVAL_ROLE ( '' ) ;
#163 = APPLICATION_PROTOCOL_DEFINITION ( 'international standard', 'config_control_design', 1994, #64 ) ;
#164 = LOCAL_TIME ( 10, 6, 21.00000000000000000, #165 ) ;
#165 = COORDINATED_UNIVERSAL_TIME_OFFSET ( 8, 0, .BEHIND. ) ;
#166 = CALENDAR_DATE ( 2024, 21, 1 ) ;
#167 = SECURITY_CLASSIFICATION ( '', '', #47 ) ;
#168 = CC_DESIGN_PERSON_AND_ORGANIZATION_ASSIGNMENT ( #66, #160, ( #19 ) ) ;
#169 = LINE ( 'NONE', #16, #134 ) ;
#170 = DESIGN_CONTEXT ( 'detailed design', #64, 'design' ) ;
#171 = AXIS2_PLACEMENT_3D ( 'NONE', #156, #205, #61 ) ;
#172 = DIRECTION ( 'NONE',  ( 0.7071067811865486830, -5.932463502537198661E-15, -0.7071067811865462405 ) ) ;
#173 = DIRECTION ( 'NONE',  ( 0.000000000000000000, -4.097771990496393842E-16, 1.000000000000000000 ) ) ;
#174 = CARTESIAN_POINT ( 'NONE',  ( 0.000000000000000000, 0.5857864376269035223, -1.414213562373092703 ) ) ;
#175 = DIRECTION ( 'NONE',  ( 0.7071067811865463515, 2.897562362236303384E-16, -0.7071067811865487940 ) ) ;
#176 = EDGE_LOOP ( 'NONE', ( #9, #73, #183 ) ) ;
#177 = CC_DESIGN_APPROVAL ( #14, ( #167 ) ) ;
#178 = APPROVAL_DATE_TIME ( #24, #118 ) ;
#179 = CC_DESIGN_DATE_AND_TIME_ASSIGNMENT ( #116, #131, ( #19 ) ) ;
#180 = APPROVAL_DATE_TIME ( #199, #122 ) ;
#181 = COORDINATED_UNIVERSAL_TIME_OFFSET ( 8, 0, .BEHIND. ) ;
#182 = CIRCLE ( 'NONE', #213, 2.047000000000000597 ) ;
#183 = ORIENTED_EDGE ( 'NONE', *, *, #41, .F. ) ;
#184 = EDGE_CURVE ( 'NONE', #48, #114, #137, .T. ) ;
#185 = APPROVAL_ROLE ( '' ) ;
#186 = PRODUCT_RELATED_PRODUCT_CATEGORY ( 'detail', '', ( #42 ) ) ;
#187 = DIRECTION ( 'NONE',  ( -0.7071067811865486830, -2.731847993664262725E-16, 0.7071067811865462405 ) ) ;
#188 = CIRCLE ( 'NONE', #124, 2.000000000000000000 ) ;
#189 = EDGE_LOOP ( 'NONE', ( #139, #98, #149 ) ) ;
#190 = EDGE_LOOP ( 'NONE', ( #132, #70, #6, #110 ) ) ;
#191 = CC_DESIGN_DATE_AND_TIME_ASSIGNMENT ( #96, #57, ( #167 ) ) ;
#192 = CARTESIAN_POINT ( 'NONE',  ( -1.414213562373097810, -1.414213562373091815, -5.463695987328526437E-16 ) ) ;
#193 = PLANE ( 'NONE',  #119 ) ;
#194 = APPROVAL_PERSON_ORGANIZATION ( #52, #118, #162 ) ;
#195 = COORDINATED_UNIVERSAL_TIME_OFFSET ( 8, 0, .BEHIND. ) ;
#196 = PERSON_AND_ORGANIZATION ( #65, #27 ) ;
#197 = ORIENTED_EDGE ( 'NONE', *, *, #201, .T. ) ;
#198 = ORIENTED_EDGE ( 'NONE', *, *, #92, .F. ) ;
#199 = DATE_AND_TIME ( #212, #112 ) ;
#200 = CIRCLE ( 'NONE', #76, 2.047000000000000153 ) ;
#201 = EDGE_CURVE ( 'NONE', #22, #23, #169, .T. ) ;
#202 = CARTESIAN_POINT ( 'NONE',  ( 0.000000000000000000, -1.414213562373096256, -1.414213562373093369 ) ) ;
#203 = FACE_OUTER_BOUND ( 'NONE', #189, .T. ) ;
#204 = CC_DESIGN_APPROVAL ( #122, ( #45 ) ) ;
#205 = DIRECTION ( 'NONE',  ( 0.000000000000000000, -1.000000000000000000, -4.097771990496395814E-16 ) ) ;
#206 = EDGE_LOOP ( 'NONE', ( #3, #88, #109, #63 ) ) ;
#207 = DIRECTION ( 'NONE',  ( -0.7071067811865486830, 1.200209628260102537E-16, 0.7071067811865462405 ) ) ;
#208 = ADVANCED_FACE ( 'NONE', ( #203 ), #152, .T. ) ;
#209 = CIRCLE ( 'NONE', #30, 2.000000000000000000 ) ;
#210 = CALENDAR_DATE ( 2024, 21, 1 ) ;
#211 = CARTESIAN_POINT ( 'NONE',  ( 0.000000000000000000, -1.414213562373091371, -1.414213562373093369 ) ) ;
#212 = CALENDAR_DATE ( 2024, 21, 1 ) ;
#213 = AXIS2_PLACEMENT_3D ( 'NONE', #155, #58, #127 ) ;
ENDSEC;
END-ISO-10303-21;
