ISO-10303-21;
HEADER;
FILE_DESCRIPTION (( 'STEP AP203' ),
    '1' );
FILE_NAME ('450508.STEP',
    '2024-01-21T18:15:21',
    ( '' ),
    ( '' ),
    'SwSTEP 2.0',
    'SolidWorks 2021',
    '' );
FILE_SCHEMA (( 'CONFIG_CONTROL_DESIGN' ));
ENDSEC;

DATA;
#1 = APPROVAL_PERSON_ORGANIZATION ( #176, #201, #143 ) ;
#2 = APPLICATION_CONTEXT ( 'configuration controlled 3d designs of mechanical parts and assemblies' ) ;
#3 = DIRECTION ( 'NONE',  ( -0.000000000000000000, 1.000000000000000000, 4.097771990496395814E-16 ) ) ;
#4 = CC_DESIGN_PERSON_AND_ORGANIZATION_ASSIGNMENT ( #193, #130, ( #153 ) ) ;
#5 = LOCAL_TIME ( 10, 15, 21.00000000000000000, #208 ) ;
#6 = VERTEX_POINT ( 'NONE', #96 ) ;
#7 = CALENDAR_DATE ( 2024, 21, 1 ) ;
#8 =( NAMED_UNIT ( * ) PLANE_ANGLE_UNIT ( ) SI_UNIT ( $, .RADIAN. ) );
#9 = APPROVAL_STATUS ( 'not_yet_approved' ) ;
#10 = ORIENTED_EDGE ( 'NONE', *, *, #42, .T. ) ;
#11 = CC_DESIGN_PERSON_AND_ORGANIZATION_ASSIGNMENT ( #32, #164, ( #59 ) ) ;
#12 = PERSON_AND_ORGANIZATION ( #185, #101 ) ;
#13 = AXIS2_PLACEMENT_3D ( 'NONE', #36, #157, #53 ) ;
#14 = CARTESIAN_POINT ( 'NONE',  ( 0.000000000000000000, -1.414213562373096256, -1.414213562373093369 ) ) ;
#15 = ADVANCED_FACE ( 'NONE', ( #17 ), #151, .T. ) ;
#16 = AXIS2_PLACEMENT_3D ( 'NONE', #29, #64, #169 ) ;
#17 = FACE_OUTER_BOUND ( 'NONE', #26, .T. ) ;
#18 = DIRECTION ( 'NONE',  ( 0.7071067811865486830, 1.200209628260102044E-16, 0.7071067811865462405 ) ) ;
#19 = EDGE_CURVE ( 'NONE', #182, #30, #139, .T. ) ;
#20 = DIRECTION ( 'NONE',  ( -0.7071067811865486830, 1.200209628260102537E-16, 0.7071067811865462405 ) ) ;
#21 = EDGE_CURVE ( 'NONE', #30, #192, #113, .T. ) ;
#22 =( NAMED_UNIT ( * ) SI_UNIT ( $, .STERADIAN. ) SOLID_ANGLE_UNIT ( ) );
#23 = VERTEX_POINT ( 'NONE', #44 ) ;
#24 = ORIENTED_EDGE ( 'NONE', *, *, #186, .F. ) ;
#25 =( LENGTH_UNIT ( ) NAMED_UNIT ( * ) SI_UNIT ( $, .METRE. ) );
#26 = EDGE_LOOP ( 'NONE', ( #94, #181, #107, #24 ) ) ;
#27 = DIRECTION ( 'NONE',  ( 0.000000000000000000, 0.000000000000000000, 1.000000000000000000 ) ) ;
#28 = PERSON_AND_ORGANIZATION_ROLE ( 'design_supplier' ) ;
#29 = CARTESIAN_POINT ( 'NONE',  ( 0.000000000000000000, -1.414213562373091371, -1.414213562373093369 ) ) ;
#30 = VERTEX_POINT ( 'NONE', #119 ) ;
#31 = DIRECTION ( 'NONE',  ( 0.7071067811865486830, -4.673100952266445475E-15, -0.7071067811865462405 ) ) ;
#32 = PERSON_AND_ORGANIZATION ( #185, #101 ) ;
#33 = CC_DESIGN_APPROVAL ( #201, ( #105 ) ) ;
#34 = LINE ( 'NONE', #37, #35 ) ;
#35 = VECTOR ( 'NONE', #115, 39.37007874015748143 ) ;
#36 = CARTESIAN_POINT ( 'NONE',  ( 0.000000000000000000, -1.414213562373096256, -1.414213562373093369 ) ) ;
#37 = CARTESIAN_POINT ( 'NONE',  ( 0.000000000000000000, 0.5857864376269035223, -1.414213562373092703 ) ) ;
#38 = ORIENTED_EDGE ( 'NONE', *, *, #70, .F. ) ;
#39 = CARTESIAN_POINT ( 'NONE',  ( 0.000000000000000000, 0.000000000000000000, 0.000000000000000000 ) ) ;
#40 = EDGE_LOOP ( 'NONE', ( #10, #58, #81, #112 ) ) ;
#41 = PERSON_AND_ORGANIZATION_ROLE ( 'creator' ) ;
#42 = EDGE_CURVE ( 'NONE', #192, #23, #72, .T. ) ;
#43 = APPROVAL_DATE_TIME ( #145, #201 ) ;
#44 = CARTESIAN_POINT ( 'NONE',  ( 0.000000000000000000, 0.5857864376269035223, -1.414213562373092703 ) ) ;
#45 = UNCERTAINTY_MEASURE_WITH_UNIT (LENGTH_MEASURE( 1.000000000000000082E-05 ), #54, 'distance_accuracy_value', 'NONE');
#46 = FACE_OUTER_BOUND ( 'NONE', #40, .T. ) ;
#47 = AXIS2_PLACEMENT_3D ( 'NONE', #99, #149, #170 ) ;
#48 = CARTESIAN_POINT ( 'NONE',  ( 0.000000000000000000, -1.414213562373090705, -1.414213562373093369 ) ) ;
#49 = CC_DESIGN_APPROVAL ( #196, ( #184 ) ) ;
#50 = SPHERICAL_SURFACE ( 'NONE', #97, 2.000000000000000000 ) ;
#51 = CARTESIAN_POINT ( 'NONE',  ( 1.414213562373097810, -1.414213562373091815, -5.463695987328526437E-16 ) ) ;
#52 = DIRECTION ( 'NONE',  ( 0.7071067811865462405, -2.897562362236303877E-16, 0.7071067811865487940 ) ) ;
#53 = DIRECTION ( 'NONE',  ( -0.7071067811865486830, 1.288607544181255956E-16, 0.7071067811865462405 ) ) ;
#54 =( CONVERSION_BASED_UNIT ( 'INCH', #178 ) LENGTH_UNIT ( ) NAMED_UNIT ( #126 ) );
#55 = CC_DESIGN_PERSON_AND_ORGANIZATION_ASSIGNMENT ( #12, #28, ( #184 ) ) ;
#56 = ADVANCED_BREP_SHAPE_REPRESENTATION ( '450508', ( #82, #118 ), #103 ) ;
#57 = PERSON_AND_ORGANIZATION ( #185, #101 ) ;
#58 = ORIENTED_EDGE ( 'NONE', *, *, #211, .T. ) ;
#59 = SECURITY_CLASSIFICATION ( '', '', #137 ) ;
#60 = ORIENTED_EDGE ( 'NONE', *, *, #102, .T. ) ;
#61 = DATE_AND_TIME ( #207, #152 ) ;
#62 = APPROVAL_PERSON_ORGANIZATION ( #198, #74, #165 ) ;
#63 = CC_DESIGN_PERSON_AND_ORGANIZATION_ASSIGNMENT ( #57, #41, ( #105 ) ) ;
#64 = DIRECTION ( 'NONE',  ( -0.000000000000000000, 1.000000000000000000, 4.097771990496395814E-16 ) ) ;
#65 = CLOSED_SHELL ( 'NONE', ( #191, #15, #85, #116, #89 ) ) ;
#66 = COORDINATED_UNIVERSAL_TIME_OFFSET ( 8, 0, .BEHIND. ) ;
#67 = DIRECTION ( 'NONE',  ( 0.7071067811865487940, 1.365923996832131609E-16, 0.7071067811865463515 ) ) ;
#68 = DIRECTION ( 'NONE',  ( -0.7071067811865463515, 2.897562362236303877E-16, -0.7071067811865487940 ) ) ;
#69 = PLANE ( 'NONE',  #166 ) ;
#70 = EDGE_CURVE ( 'NONE', #30, #23, #90, .T. ) ;
#71 = LINE ( 'NONE', #51, #114 ) ;
#72 = CIRCLE ( 'NONE', #136, 2.000000000000000000 ) ;
#73 = MECHANICAL_CONTEXT ( 'NONE', #188, 'mechanical' ) ;
#74 = APPROVAL ( #98, 'UNSPECIFIED' ) ;
#75 = DIRECTION ( 'NONE',  ( 1.000000000000000000, 0.000000000000000000, 0.000000000000000000 ) ) ;
#76 = DATE_AND_TIME ( #7, #167 ) ;
#77 = ORIENTED_EDGE ( 'NONE', *, *, #42, .F. ) ;
#78 = AXIS2_PLACEMENT_3D ( 'NONE', #48, #3, #88 ) ;
#79 = CC_DESIGN_PERSON_AND_ORGANIZATION_ASSIGNMENT ( #194, #111, ( #184 ) ) ;
#80 = COORDINATED_UNIVERSAL_TIME_OFFSET ( 8, 0, .BEHIND. ) ;
#81 = ORIENTED_EDGE ( 'NONE', *, *, #154, .T. ) ;
#82 = MANIFOLD_SOLID_BREP ( 'Revolve1', #65 ) ;
#83 = COORDINATED_UNIVERSAL_TIME_OFFSET ( 8, 0, .BEHIND. ) ;
#84 = SPHERICAL_SURFACE ( 'NONE', #175, 2.120000000000000107 ) ;
#85 = ADVANCED_FACE ( 'NONE', ( #87 ), #84, .T. ) ;
#86 = DATE_AND_TIME ( #171, #212 ) ;
#87 = FACE_OUTER_BOUND ( 'NONE', #160, .T. ) ;
#88 = DIRECTION ( 'NONE',  ( 0.000000000000000000, -3.865822632543767868E-16, 1.000000000000000000 ) ) ;
#89 = ADVANCED_FACE ( 'NONE', ( #46 ), #138, .F. ) ;
#90 = CIRCLE ( 'NONE', #47, 2.000000000000000000 ) ;
#91 = EDGE_LOOP ( 'NONE', ( #110, #134, #77 ) ) ;
#92 = APPROVAL_ROLE ( '' ) ;
#93 = LOCAL_TIME ( 10, 15, 21.00000000000000000, #83 ) ;
#94 = ORIENTED_EDGE ( 'NONE', *, *, #131, .F. ) ;
#95 = PRODUCT_RELATED_PRODUCT_CATEGORY ( 'detail', '', ( #153 ) ) ;
#96 = CARTESIAN_POINT ( 'NONE',  ( 1.499066376115483656, -1.414213562373091371, 0.08485281374238505536 ) ) ;
#97 = AXIS2_PLACEMENT_3D ( 'NONE', #187, #52, #124 ) ;
#98 = APPROVAL_STATUS ( 'not_yet_approved' ) ;
#99 = CARTESIAN_POINT ( 'NONE',  ( 0.000000000000000000, -1.414213562373096256, -1.414213562373093369 ) ) ;
#100 = DATE_TIME_ROLE ( 'classification_date' ) ;
#101 = ORGANIZATION ( 'UNSPECIFIED', 'UNSPECIFIED', '' ) ;
#102 = EDGE_CURVE ( 'NONE', #144, #182, #106, .T. ) ;
#103 =( GEOMETRIC_REPRESENTATION_CONTEXT ( 3 ) GLOBAL_UNCERTAINTY_ASSIGNED_CONTEXT ( ( #45 ) ) GLOBAL_UNIT_ASSIGNED_CONTEXT ( ( #54, #8, #22 ) ) REPRESENTATION_CONTEXT ( 'NONE', 'WORKASPACE' ) );
#104 = PRODUCT_DEFINITION_SHAPE ( 'NONE', 'NONE',  #105 ) ;
#105 = PRODUCT_DEFINITION ( 'UNKNOWN', '', #184, #156 ) ;
#106 = CIRCLE ( 'NONE', #13, 2.120000000000000551 ) ;
#107 = ORIENTED_EDGE ( 'NONE', *, *, #21, .T. ) ;
#108 = APPLICATION_PROTOCOL_DEFINITION ( 'international standard', 'config_control_design', 1994, #2 ) ;
#109 = PERSON_AND_ORGANIZATION ( #185, #101 ) ;
#110 = ORIENTED_EDGE ( 'NONE', *, *, #21, .F. ) ;
#111 = PERSON_AND_ORGANIZATION_ROLE ( 'creator' ) ;
#112 = ORIENTED_EDGE ( 'NONE', *, *, #186, .T. ) ;
#113 = CIRCLE ( 'NONE', #16, 2.000000000000000444 ) ;
#114 = VECTOR ( 'NONE', #123, 39.37007874015748854 ) ;
#115 = DIRECTION ( 'NONE',  ( -1.320000631685425618E-15, 1.000000000000000000, 1.729777830735061058E-15 ) ) ;
#116 = ADVANCED_FACE ( 'NONE', ( #189 ), #69, .T. ) ;
#117 = DIRECTION ( 'NONE',  ( 0.7071067811865463515, -2.897562362236303384E-16, 0.7071067811865487940 ) ) ;
#118 = AXIS2_PLACEMENT_3D ( 'NONE', #39, #27, #75 ) ;
#119 = CARTESIAN_POINT ( 'NONE',  ( -1.414213562373097810, -1.414213562373091815, -5.463695987328526437E-16 ) ) ;
#120 = CARTESIAN_POINT ( 'NONE',  ( -1.414213562373097810, -1.414213562373091593, -5.463695987328525451E-16 ) ) ;
#121 = CC_DESIGN_APPROVAL ( #74, ( #59 ) ) ;
#122 = CIRCLE ( 'NONE', #147, 2.120000000000000551 ) ;
#123 = DIRECTION ( 'NONE',  ( -0.7071067811865486830, -4.673100952266445475E-15, -0.7071067811865462405 ) ) ;
#124 = DIRECTION ( 'NONE',  ( -0.7071067811865486830, -2.731847993664262725E-16, 0.7071067811865462405 ) ) ;
#125 = FACE_OUTER_BOUND ( 'NONE', #91, .T. ) ;
#126 = DIMENSIONAL_EXPONENTS ( 1.000000000000000000, 0.000000000000000000, 0.000000000000000000, 0.000000000000000000, 0.000000000000000000, 0.000000000000000000, 0.000000000000000000 ) ;
#127 = CARTESIAN_POINT ( 'NONE',  ( -1.499066376115483878, -1.414213562373091371, 0.08485281374238491658 ) ) ;
#128 = CC_DESIGN_SECURITY_CLASSIFICATION ( #59, ( #184 ) ) ;
#129 = CARTESIAN_POINT ( 'NONE',  ( 0.000000000000000000, -1.414213562373096256, -1.414213562373093369 ) ) ;
#130 = PERSON_AND_ORGANIZATION_ROLE ( 'design_owner' ) ;
#131 = EDGE_CURVE ( 'NONE', #182, #6, #141, .T. ) ;
#132 = ORIENTED_EDGE ( 'NONE', *, *, #131, .T. ) ;
#133 = DATE_TIME_ROLE ( 'creation_date' ) ;
#134 = ORIENTED_EDGE ( 'NONE', *, *, #70, .T. ) ;
#135 = APPROVAL_DATE_TIME ( #61, #196 ) ;
#136 = AXIS2_PLACEMENT_3D ( 'NONE', #14, #213, #67 ) ;
#137 = SECURITY_CLASSIFICATION_LEVEL ( 'unclassified' ) ;
#138 = PLANE ( 'NONE',  #200 ) ;
#139 = LINE ( 'NONE', #155, #204 ) ;
#140 = CC_DESIGN_DATE_AND_TIME_ASSIGNMENT ( #76, #133, ( #105 ) ) ;
#141 = CIRCLE ( 'NONE', #78, 2.120000000000000551 ) ;
#142 = CARTESIAN_POINT ( 'NONE',  ( 0.000000000000000000, -1.414213562373096256, -1.414213562373093369 ) ) ;
#143 = APPROVAL_ROLE ( '' ) ;
#144 = VERTEX_POINT ( 'NONE', #203 ) ;
#145 = DATE_AND_TIME ( #205, #5 ) ;
#146 = ORIENTED_EDGE ( 'NONE', *, *, #19, .F. ) ;
#147 = AXIS2_PLACEMENT_3D ( 'NONE', #129, #202, #174 ) ;
#148 = APPROVAL_DATE_TIME ( #86, #74 ) ;
#149 = DIRECTION ( 'NONE',  ( -0.7071067811865463515, 2.897562362236303877E-16, -0.7071067811865487940 ) ) ;
#150 = CC_DESIGN_DATE_AND_TIME_ASSIGNMENT ( #168, #100, ( #59 ) ) ;
#151 = PLANE ( 'NONE',  #190 ) ;
#152 = LOCAL_TIME ( 10, 15, 21.00000000000000000, #80 ) ;
#153 = PRODUCT ( '450508', '450508', '', ( #73 ) ) ;
#154 = EDGE_CURVE ( 'NONE', #144, #6, #122, .T. ) ;
#155 = CARTESIAN_POINT ( 'NONE',  ( -1.414213562373097810, -1.414213562373091815, -5.463695987328526437E-16 ) ) ;
#156 = DESIGN_CONTEXT ( 'detailed design', #2, 'design' ) ;
#157 = DIRECTION ( 'NONE',  ( 0.7071067811865463515, -2.897562362236303877E-16, 0.7071067811865487940 ) ) ;
#158 = CARTESIAN_POINT ( 'NONE',  ( 0.000000000000000000, -1.414213562373096256, -1.414213562373093369 ) ) ;
#159 = APPROVAL_PERSON_ORGANIZATION ( #109, #196, #92 ) ;
#160 = EDGE_LOOP ( 'NONE', ( #179, #60, #132 ) ) ;
#161 = COORDINATED_UNIVERSAL_TIME_OFFSET ( 8, 0, .BEHIND. ) ;
#162 = ORIENTED_EDGE ( 'NONE', *, *, #211, .F. ) ;
#163 = ORIENTED_EDGE ( 'NONE', *, *, #102, .F. ) ;
#164 = PERSON_AND_ORGANIZATION_ROLE ( 'classification_officer' ) ;
#165 = APPROVAL_ROLE ( '' ) ;
#166 = AXIS2_PLACEMENT_3D ( 'NONE', #142, #68, #20 ) ;
#167 = LOCAL_TIME ( 10, 15, 21.00000000000000000, #161 ) ;
#168 = DATE_AND_TIME ( #195, #93 ) ;
#169 = DIRECTION ( 'NONE',  ( 0.000000000000000000, -4.097771990496393842E-16, 1.000000000000000000 ) ) ;
#170 = DIRECTION ( 'NONE',  ( -0.7071067811865487940, 1.365923996832131609E-16, 0.7071067811865463515 ) ) ;
#171 = CALENDAR_DATE ( 2024, 21, 1 ) ;
#172 = DIRECTION ( 'NONE',  ( 0.000000000000000000, 4.097771990496395814E-16, -1.000000000000000000 ) ) ;
#173 = CARTESIAN_POINT ( 'NONE',  ( 1.414213562373097810, -1.414213562373091815, -5.463695987328526437E-16 ) ) ;
#174 = DIRECTION ( 'NONE',  ( 0.7071067811865486830, 1.288607544181255956E-16, 0.7071067811865462405 ) ) ;
#175 = AXIS2_PLACEMENT_3D ( 'NONE', #197, #117, #183 ) ;
#176 = PERSON_AND_ORGANIZATION ( #185, #101 ) ;
#177 = EDGE_LOOP ( 'NONE', ( #38, #146, #163, #162 ) ) ;
#178 = LENGTH_MEASURE_WITH_UNIT ( LENGTH_MEASURE( 0.02539999999999999897 ), #25 );
#179 = ORIENTED_EDGE ( 'NONE', *, *, #154, .F. ) ;
#180 = APPROVAL_STATUS ( 'not_yet_approved' ) ;
#181 = ORIENTED_EDGE ( 'NONE', *, *, #19, .T. ) ;
#182 = VERTEX_POINT ( 'NONE', #127 ) ;
#183 = DIRECTION ( 'NONE',  ( -0.7071067811865487940, -2.577215088362511912E-16, 0.7071067811865463515 ) ) ;
#184 = PRODUCT_DEFINITION_FORMATION_WITH_SPECIFIED_SOURCE ( 'ANY', '', #153, .NOT_KNOWN. ) ;
#185 = PERSON ( 'UNSPECIFIED', 'UNSPECIFIED', 'UNSPECIFIED', ('UNSPECIFIED'), ('UNSPECIFIED'), ('UNSPECIFIED') ) ;
#186 = EDGE_CURVE ( 'NONE', #6, #192, #71, .T. ) ;
#187 = CARTESIAN_POINT ( 'NONE',  ( 0.000000000000000000, -1.414213562373096256, -1.414213562373093369 ) ) ;
#188 = APPLICATION_CONTEXT ( 'configuration controlled 3d designs of mechanical parts and assemblies' ) ;
#189 = FACE_OUTER_BOUND ( 'NONE', #177, .T. ) ;
#190 = AXIS2_PLACEMENT_3D ( 'NONE', #120, #210, #172 ) ;
#191 = ADVANCED_FACE ( 'NONE', ( #125 ), #50, .F. ) ;
#192 = VERTEX_POINT ( 'NONE', #173 ) ;
#193 = PERSON_AND_ORGANIZATION ( #185, #101 ) ;
#194 = PERSON_AND_ORGANIZATION ( #185, #101 ) ;
#195 = CALENDAR_DATE ( 2024, 21, 1 ) ;
#196 = APPROVAL ( #9, 'UNSPECIFIED' ) ;
#197 = CARTESIAN_POINT ( 'NONE',  ( 0.000000000000000000, -1.414213562373096256, -1.414213562373093369 ) ) ;
#198 = PERSON_AND_ORGANIZATION ( #185, #101 ) ;
#199 = DIRECTION ( 'NONE',  ( -0.7071067811865463515, -2.897562362236303877E-16, 0.7071067811865487940 ) ) ;
#200 = AXIS2_PLACEMENT_3D ( 'NONE', #158, #199, #18 ) ;
#201 = APPROVAL ( #180, 'UNSPECIFIED' ) ;
#202 = DIRECTION ( 'NONE',  ( 0.7071067811865463515, 2.897562362236303384E-16, -0.7071067811865487940 ) ) ;
#203 = CARTESIAN_POINT ( 'NONE',  ( -2.731847993664263218E-16, 0.7057864376269038509, -1.414213562373092481 ) ) ;
#204 = VECTOR ( 'NONE', #31, 39.37007874015748854 ) ;
#205 = CALENDAR_DATE ( 2024, 21, 1 ) ;
#206 = APPLICATION_PROTOCOL_DEFINITION ( 'international standard', 'config_control_design', 1994, #188 ) ;
#207 = CALENDAR_DATE ( 2024, 21, 1 ) ;
#208 = COORDINATED_UNIVERSAL_TIME_OFFSET ( 8, 0, .BEHIND. ) ;
#209 = SHAPE_DEFINITION_REPRESENTATION ( #104, #56 ) ;
#210 = DIRECTION ( 'NONE',  ( 0.000000000000000000, -1.000000000000000000, -4.097771990496395814E-16 ) ) ;
#211 = EDGE_CURVE ( 'NONE', #23, #144, #34, .T. ) ;
#212 = LOCAL_TIME ( 10, 15, 21.00000000000000000, #66 ) ;
#213 = DIRECTION ( 'NONE',  ( -0.7071067811865463515, -2.897562362236303384E-16, 0.7071067811865487940 ) ) ;
ENDSEC;
END-ISO-10303-21;
